Boy Hits Car - Im A Cloud Chords & Tabs

 

Im A Cloud Chords & Tabs

Boy Hits Car Chords & Tabs

Version: 2 Type: Bass Tab 0 ratings
1 star 2 stars 3 stars 4 stars 5 stars
comments

Im A Cloud Bass Tab

   
Tab: "I'm A Cloud" by Boy Hits Car

Album: Boy Hits Car

Tabber: misplaced

Tuning: drop d (d, a, d, g)

Intro
G|-------------------12h14---------------
D|-----0-0--10p0-0----------10-10-10-10--
A|---------------------------------------
D|---------------------------------------

Chorus
G|------------------------------------
D|------------------------------------
A|----------------10------------------
D|-----0-0-10p0-0----10-10-10---------
[ Tab from: http://www.guitartabs.cc/tabs/b/boy_hits_car/im_a_cloud_btab_ver_2.html ]
Verse
G|------------------------------------
D|------------------------------------
A|------------------------------------
D|---0-0-10p0-0-0--0-10p0-------------

Bridge
G|--------------------------------------
D|--0-10p0-0-10p0-0-10p0-0-10p0-0--10h12
A|--------------------------------------
D|--------------------------------------

"MF stepped on me" part
G|---------------------------------------
D|---------------------------------------
A|---------------------------------------
D|--0-0-----------------0-0--------------

h=hammer (hit that fret without picking or plucking the new note)
p=pull (lift ur finger off that fret without picking or plucking the new note)

If you have any questions or any corrections please email me at slimjim9000@hotmail.com
Comments