Boy Hits Car - Im A Cloud Chords & Tabs

 

Im A Cloud Chords & Tabs

Boy Hits Car Chords & Tabs

Version: 1 Type: Bass Tab 0 ratings
1 star 2 stars 3 stars 4 stars 5 stars
comments

Im A Cloud Bass Tab

   
Tab: "I'm A Cloud" by Boy Hits Car

Album: Boy Hits Car

Tabber: misplaced

Tuning: drop d (d, a, d, g)

Intro
G|----------------12h14-----------------
D|--0-0--10p0-0-0---------10-10-10-10-10-
A|--------------------------------------
D|--------------------------------------

Chorus
G|------------------------------------
D|------------------------------------
A|-------------10-12------------------
D|--0-0-10p0-0-------10-10--10-10-----
[ Tab from: http://www.guitartabs.cc/tabs/b/boy_hits_car/im_a_cloud_btab.html ]
Verse
G|----------------------------------
D|----------------------------------
A|---------------------------10-12--
D|--0-0-10p0-0-0--0--0-10-12--------

Bridge
G|--------------------------------------
D|--0-10p0-0-10p0-0-10p0-0-10p0-0--10h12
A|--------------------------------------
D|--------------------------------------

"MF stepped on me" part
G|-----------|-----------
D|-----------|-----------
A|-----------|-----------
D|--0-0------|--0-0------

h=hammer (hit that fret without picking the new note)
p=pull (pull ur finger like u were doing a bend except let ur finger slip off without picking the new note)

If you have any questions or any corrections please email me at slimjim9000@hotmail.com.



Comments