Boy Hits Car - Hope Chords & Tabs

 

Boy Hits Car Chords & Tabs

Version: 1 Type: Tab 0 ratings
1 star 2 stars 3 stars 4 stars 5 stars
comments

Hope Tab

   
Boy Hits Car - Hope
Submitted By: Greg Ramirez
EMail: Gutterball438@aol.com
Album: My Animal
Tuning: Drop D (D A D B G e)

Intro:
----------------|
----------------|
-----------7-7--|
-----------x-x--|
-----------5-5--|
-0-0-0-0--------|

Riff A:
-----------------------------------------------------|
-----------------------------------------------------|
-7--------5----------8-8-8~-7--------5----------8-8--| 2x
-x-0-0-0--x-0-0-0--0-x-x-x--x-0-0-0--x-0-0-0--0-x-x--|
-5-0-0-0--3-0-0-0--0-6-6-6~-5-0-0-0--3-0-0-0--0-6-6--|
-0-0-0-0--0-0-0-0--0--------0-0-0-0--0-0-0-0--0------|

Riff B
------------------------------------------------------------|
------------------------------------------------------------|
------------------------------------------------------------|4x
-12-x-x-x-x-10-x-x-x-x-10-13-13-12-x-x-x-x-10-x-x-x-x-10-13-|
-12-x-x-x-x-10-x-x-x-x-10-13-13-12-x-x-x-x-10-x-x-x-x-10-13-|
-12-x-x-x-x-10-x-x-x-x-10-13-13-12-x-x-x-x-10-x-x-x-x-10-13-|
[ Tab from: http://www.guitartabs.cc/tabs/b/boy_hits_car/hope_tab.html ]
Riff C
----------------------------------------------|
----------------------------------------------|
------------------8-8-8~------------------8-8-|  2x
-0-0-0-0--0-0-0-0-x-x-x--0-0-0-0--0-0-0-0-x-x-|
-0-0-0-0--0-0-0-0-6-6-6~-0-0-0-0--0-0-0-0-6-6-|
-0-0-0-0--0-0-0-0--------0-0-0-0--0-0-0-0-----|

Riff D
-----------------------------------------------------|
-----------------------------------------------------|
-12-11-11-11--11-8-8-8-7-8-7-12-11-11-11--11-8-8-8-7-| 
-----------------------------------------------------|
-----------------------------------------------------|
-----------------------------------------------------|
Riff A: 2x
Riff B: 4x
Riff C: 2x

Riff F
------------------------------------------------|
------------------------------------------------|
-------------------8-8-8~-------------------8-8-|
-0---0-----0---0---x-x-x--0---0-----0---0---x-x-|
-0---0-----0---0---6-6-6~-0---0-----0---0---6-6-|
-0---0-----0---0----------0---0-----0---0-------|
Riff D: 6x
Riff G
--------------------------------------------------------|
--------------------------------------------------------|
--------------------------------------------------------|
--------------------------------------------------------|
-10-9-9-9--9-12-12-12-12--12-15-15-10-9-9-9--9-6--6-6-5-|
--------------------------------------------------------|
Riff A: 2x
Riff F: 2x

That's it.  Question or comments email greg at 
gutterball438@aol.com
Comments
Boy Hits Car chords | Boy Hits Car Hope tab