Boy Hits Car - Benkei Chords & Tabs

 

Benkei Chords & Tabs

Boy Hits Car Chords & Tabs

Version: 1 Type: Tab 0 ratings
1 star 2 stars 3 stars 4 stars 5 stars
comments

Benkei Tab

   
Artist: Boy Hits Car
Song: Benkei
Album: Boy Hits Car
Tabbed by: Mit

Tuning: Drop D (D A D G B E)

Intro:

Guitar 1:
|----------------------------------------------------------|
|-------7------7---------7-----------7------7---------7----|
|-----7--7---7---7-----7---7-------7--7---7---7-----7---7--|  x4
|-0----------------------------0---------------------------|
|----------------------------------------------------------|
|----------------------------------------------------------|
 slightly dampen strings

Guitar 2: (comes in after 16 bars)
|----------------------------------------------------------|
|----------------------------------------------------------|
|----------------------------------------------------------|  x2
|-------4-----4-4------7--7----------4-----4-4------7--7---|
|-5--5-----5------5------------5--5-----5------5-----------|
|----------------------------------------------------------|
  PM____________________________________________________

then; (all guitars)
|----------------------------------------------------------|
|----------------------------------------------------------|
|------11---------------------------11---------------------|  x4
|----------------------------------------------------------|
|-0-0--9--0--3-0--3h5--0--12---0-0--9--0--3-0--3h5-0--3h5--|
|-0-0-----0--3-0--3h5--0--12---0-0-----0--3-0--3h5-0--3h5--|



Verse:
|-------------------|
|-------------------|
|-------------------|
|-0---let-ring-for--|
|-0---16-bars-------|
|-0-----------------|

then;
|----------------------------------------------------------|
|-------7------7---------7-----------7------7---------7----|
|-----7--7---7---7-----7---7-------7--7---7---7-----7---7--|  x2
|-0----------------------------0---------------------------|
|----------------------------------------------------------|
|----------------------------------------------------------|
 slightly dampen strings


Bridge:
|----------------------------------------------------------|
|----------------------------------------------------------|
|----------------------7--7-7----------------------7--7-7--|
|----------------------7--7-7----------------------7--7-7--|
|--3-0--3-0--3-0--3-0--5--5-5--3-0--3-0--3-0--3-0--5--5-5--|  
|--3-0--3-0--3-0--3-0----------3-0--3-0--3-0--3-0----------|

|----------------------------------------------------------|
|----------------------------------------------------------|
|----------------------7--7-7-------------7---7-7-7-7-7-7--|
|----------------------7--7-7-------------7---7-7-7-7-7-7--|
|--3-0--3-0--3-0--3-0--5--5-5--3-0--3-0---5---5-5-5-5-5-5--|  
|--3-0--3-0--3-0--3-0----------3-0--3-0--------------------|

[ Tab from: http://www.guitartabs.cc/tabs/b/boy_hits_car/benkei_tab.html ]
Chorus:
|----------------------------------------------------------|
|----------------------------------------------------------|
|------11---------------------------11---------------------|
|----------------------------------------------------------|
|-0-0--9--0--3-0--3h5--0--12---0-0--9--0--3-0--3h5-0--3h5--|
|-0-0-----0--3-0--3h5--0--12---0-0-----0--3-0--3h5-0--3h5--|
               “you’re so beautiful.....”


Verse 2:

same as verse 1 but with this fill coming in around bar 4:
|----------------------------------------------------------|
|----------------------------------------------------------|
|----------------------------------------------------------|
|----3--/--5---------5-5--/--12----------------------------|
|----------------------------------------------------------|
|----------------------------------------------------------|


Second Chorus

Interlude: (after 2nd chorus)

|----------------------------------------------------------|
|----------------------------------------------------------|
|----------------------------------------------------------|  x4
|----------------------------------------------------------|
|--0---3h5---0--0----0----3h5--0---3h5---0--0----0----3h5--|
|--0---3h5---0--0----0----3h5--0---3h5---0--0----0----3h5--|

then;
|----------------------------------------------------------|
|----------------------------------------------------------|
|------10h12--------------10h12----10h12--------------10h12|  x2
|-12---------12-12---12--------12--------12-12---12--------|
|----------------------------------------------------------|
|----------------------------------------------------------|

then;
|----------------------------------------------------------|
|----------------------------------------------------------|
|----------------------------------------------------------|  x4
|----------------------------------------------------------|
|--0---3h5---0--0----0----3h5--0---3h5---0--0----0----3h5--|
|--0---3h5---0--0----0----3h5--0---3h5---0--0----0----3h5--|

then;
|----------------------------------------------------------|
|----------------------------------------------------------|
|----------------------------------------------------------|
|-------4------4---------4-----------4------4---------4----|
|-5---5--5-------5-----5---5---5---5--5-------5-----5---4--|
|----------------------------------------------------------|
  PM_____________________________________________________

|----------------------------------------------------------|
|----------------------------------------------------------|
|----------------------------------------------------------|
|-------4------4---------4-----------4------4---------7-7--|
|-5---5--5-------5-----5---5---5---5--5-------5-----5------|
|----------------------------------------------------------|
  ___________________________________________________


play chorus to the end of the song
Comments