Boy Hits Car - Before We Die Chords & Tabs

 

Before We Die Chords & Tabs

Boy Hits Car Chords & Tabs

Version: 2 Type: Bass Tab 0 ratings
1 star 2 stars 3 stars 4 stars 5 stars
comments

Before We Die Bass Tab

   
Verse/Main part:

G|-----------------------|---------------------|
D|--0--0-7p0-3-3-5p3-2---|--0--0-7p0-3-3-5/7---|
A|---------------------3-|-------------------0-|
D|-----------------------|---------------------|


Bridge:
[ Tab from: http://www.guitartabs.cc/tabs/b/boy_hits_car/before_we_die_btab_ver_2.html ]
G|-----|---|---|----------|
D|-0-0-|-0-|-%-|--5--7----|
A|-----|---|---|--------3-|
D|-----|---|---|----------|


Pennyflute part:

G|-------------|
D|-------------|
A|-(3)555-3555-|
D|-------------|
   don't play the note in () the first time through


Interlude and Outro:

G|--------------|
D|--5------3----|
A|-----5------3-|
D|--------------|
Comments