Boy - Up In This Town Chords & Tabs

 

Up In This Town Chords & Tabs

Boy Chords & Tabs

Version: 1 Type: Tab 0 ratings
1 star 2 stars 3 stars 4 stars 5 stars
comments

Up In This Town Tab

song name: up in this town
band name: Boy
tabbed by: ScHrOeDeR

This is my first tab of an ez but very good song by Boy. Ive bin looking for a tab of
this for a while, but the only ones i could find were crap, so i decided to tab it out
myself. 

standard tuning: EADGBe

Intro/main riff

e|------------------------------------------|
B|------------------------------------------|
G|------------7-5---------------------------|repeats over and over
D|-7---5-7-5--7-5--5------------------------|
A|-7---5-7-5--5-5--5------------------------|
E|-5---5-5-5-------5------------------------|

Verse 1: play main riff 4 times then

e|------------------------------------------|
B|------------------------------------------|
G|-9-9-9-9-9-9---7-7-7-7-7-7----------------|
D|-9-9-9-9-9-9---7-7-7-7-7-7----------------|
A|-7-7-7-7-7-7---5-5-5-5-5-5----------------|
E|------------------------------------------|

Chorus

e|------------------------------------------|
B|------------------------------------------|second time go right into 
G|---------------7------5-------------------|main riff on last chord
D|-7------2------7-x12--5-x3--7-------------|
A|-7-x16--2-x16--5------3-----7-x16---------|
E|-5------0-------------------5-------------|

Chorus riff
[ Tab from: http://www.guitartabs.cc/tabs/b/boy/up_in_this_town_tab.html ]
e|------------15----15----------------------|
B|-151515--17----17----17-------------------|plays over and over during
G|------------------------------------------|chorus
D|------------------------------------------|
A|------------------------------------------|
E|------------------------------------------|

Verse 2: first time play main riff 8 times before going into
         the next 2 chords, second time same as vrs 1

At end of vrs 2 and during interlude this is played sometimes
instead of main riff 

e|------------------------------------------|
B|------------------------------------------|
G|-------------7b8-5------------------------|
D|--7---5-7-5--7b8-5--7---------------------|
A|--7---5-7-5--5---5--7---------------------|
E|--5---5-5-5---------5---------------------|

Interlude: let this note ring while main riff keeps playing

e|---17-------------------------------------|
B|------------------------------------------|

After last chorus guitar 1     And guitar 2 ends on
ends on                           

e|--------|                  e|--17-----|
B|--------|                  B|---------|
G|--------|                  G|---------|
D|--7-----|
A|--7-----|
E|--5-----|

There u have it. Just listen to the song and u can piece it together 
pretty easily.
Comments