Boxcar Racer - Watch The World Chords & Tabs

 

Watch The World Chords & Tabs

Boxcar Racer Chords & Tabs

Version: 6 Type: Tab 0 ratings
1 star 2 stars 3 stars 4 stars 5 stars
comments

Watch The World Tab

WATCH THE WORLD
BOX CAR RACER

intro
E|-------------------|-------------------------|------------------------------------|
B|-------------------|-------------------------|------------------------------------|
G|-4444-444--4/6-66--|-4444-444-4/6-66---------|-4444-444444-4/8-8-----3333-3/4-44--|
D|-xxxx-xxx--x-x-xx--|-xxxx-xxx-x-x-xx---------|-xxxx-xxxxxx-x-x-x-99--xxxx-x-x-xx--|
A|-2222-222--2/4-44--|-2222-222-2/4-44---------|-2222-222222-2/6-6-xx--1111-1/2-22--|
E|-4444-444----------|-2222-222----------------|-0000-000000-------77---------------|


verse(guitar 1)
E|----------------------|
B|----------------------|
G|-444--333-------------|
D|-444--444--666--222---|
A|-222--111--666--222---|
E|-----------444--000---|

guitar 2
E|----------------|
B|------7---------|
G|-4--------------|
D|----------------|
A|----------------|
E|----------------|
[ Tab from: http://www.guitartabs.cc/tabs/b/boxcar_racer/watch_the_world_tab_ver_6.html ]
chorus
E|--------------------------------------------------|
B|--------------------------------------------------|
G|-4444444444--4444444444--44444444444444444444-----|
D|-xxxxxxxxxx--6666666666--44444444444444444444-----|
A|-2222222222--xxxxxxxxxx--xxxxxxxxxxxxxxxxxxxx-----|
E|-------------4444444444--22222222222222222222-----|

interlude part 1
E|--------------------------------|
B|--------------------------------|
G|----------------99999999--------|
D|-99999--6--88---99999999--------|
A|-66666--6--66---77777777--------|
E|-77777--4-----------------------|

part 2(guitar 1)
E|-0000000000--0000000000-------------|
B|-0000000000--0000000000-------------|
G|-8888888888--9999999999-------------|
D|-9999999999--9999999999-------------|
A|-6666666666--7777777777-------------|
E|-7777777777--0000000000-------------|

guitar 2
E|----------------|
B|-------2--------|
G|-4---4---4------|
D|---4-------4----|
A|----------------|
E|----------------|

then do chorus and..

outro
guitar 2
E|--------------------|--------------------|------------------------------------|
B|--------------------|--------------------|------------------------------------|
G|-44444444--4/6-66---|-44444444--4/6-66---|-4444444444--4/8-8-----33333/4-444--|
D|-66666666--x-x-xx---|-44444444--x-x-xx---|-2222222222--x-x-x-99--xxxxx-x-xxx--|
A|-66666666--2/4-44---|-22222222--2/4-44---|-2222222222--2/6-6-xx--11111/2-222--|
E|-44444444-----------|-22222222-----------|-0000000000--------77---------------|
Comments