Boxcar Racer - Watch The World Chords & Tabs

 

Watch The World Chords & Tabs

Boxcar Racer Chords & Tabs

Version: 5 Type: Tab 1 rating
1 star 2 stars 3 stars 4 stars 5 stars
comments

Watch The World Tab

WATCH THE WORLD
BOX CAR RACER
TABBED BY RYAN

intro(do it twice)
E|--------------------------------------------------------------|
B|--------------------------------------------------------------|
G|-44444444-4/6-6--44444444-4/6-66--4444444444--88----3333-3/4--|
D|-xxxxxxxx-x-x-x--xxxxxxxx-x-x-xx--xxxxxxxxxx--xx-99-xxxx-x-x--|
A|-22222222-2/4-4--22222222-2/4-44--2222222222--66-xx-1111-1/2--|
E|-44444444--------22222222---------0000000000-----77-----------|

verse(guitar 1)(do it four times)
E|-----------------------------|
B|-----------------------------|
G|-4-4-4--3-3-3----------------|
D|-x-x-x--x-x-x--6-6-6--2-2-2--|
A|-2-2-2--1-1-1--x-x-x--2-2-2--|
E|---------------4-4-4--0-0-0--|

guitar 2(let ring)(do it 16 times)
E|--------------|
B|-----7--------|
G|-4------------|
D|--------------|
A|--------------|
E|--------------|

chorus(three times)
E|-------------------------------------------|
B|-------------------------------------------|
G|-444444444444--444444444444--444444444444--|
D|-xxxxxxxxxxxx--xxxxxxxxxxxx--xxxxxxxxxxxx--|
A|-222222222222--222222222222--222222222222--|
E|---------------444444444444--222222222222--|
[ Tab from: http://www.guitartabs.cc/tabs/b/boxcar_racer/watch_the_world_tab_ver_5.html ]
interlude (part 1)(do it twice)
E|---------------------------------------|
B|---------------------------------------|
G|----------------------9-9-9-9-9-9-9-9--|
D|-9-9-9-9-9--6--8-8----9-9-9-9-9-9-9-9--|
A|-6-6-6-6-6--6--6-6----7-7-7-7-7-7-7-7--|
E|------------4--------------------------|

part 2 (guitar 1)(do it four times)
E|-000000000000--000000000000--|
B|-000000000000--000000000000--|
G|-888888888888--999999999999--|
D|-999999999999--999999999999--|
A|-666666666666--777777777777--|
E|-777777777777--000000000000--|

guitar 2(let ring)(do it 8 times)
E|----------------|
B|---------2------|
G|-4----4----4----|
D|----4--------4--|
A|----------------|
E|----------------|

then do chorus four times

and here's the outro(guitar 1) (do it twice)
E|--------------------------------------------------------------|
B|--------------------------------------------------------------|
G|-44444444-4/6-6--44444444-4/6-66--4444444444--88----3333-3/4--|
D|-xxxxxxxx-x-x-x--xxxxxxxx-x-x-xx--xxxxxxxxxx--xx-99-xxxx-x-x--|
A|-22222222-2/4-4--22222222-2/4-44--2222222222--66-xx-1111-1/2--|
E|-44444444--------22222222---------0000000000-----77-----------|

guitar 2(do it twice)
E|----------------------------------------------|
B|----------------------------------------------|
G|----------------------------------------------|
D|-66666666--------44444444---------2222222222--|
A|-66666666--------22222222---------2222222222--|
E|-44444444--------22222222---------0000000000--|

end on
E|----|
B|----|
G|-4--|
D|-x--|
A|-2--|
E|----|
Comments