Boxcar Racer - Watch The World Chords & Tabs

 

Watch The World Chords & Tabs

Boxcar Racer Chords & Tabs

Version: 2 Type: Tab 0 ratings
1 star 2 stars 3 stars 4 stars 5 stars
comments

Watch The World Tab

What up dudes, this band is awesome. This is a sweet song, 
my personal fav on the cd.
play along w/ the song it sounds righteous dude.
Band-Boxcar Racer
Song-Watch the World

its probly 95% right
intro Guitar 1 (2x)
1--------------------------------------------------------------
2--------------------------------------------------------------
3-44444/6---44444/6---44444/6---8/4/3333/4---------------------
4-xxxxxxx---xxxxxxx---xxxxxxx---xxxxxxxxxx---------------------
5-22222/4---22222/4---22222/4---6/2/1111/2---------------------
6--------------------------------------------------------------

Intro Guitar 2 (2x)
1--------------------------------------------------------------
2--------------------------------------------------------------
3--------------------------------------------------------------
4--66666666---44444444---22222222---22222222-------------------
5--66666666---44444444---22222222---22222222-------------------
6--44444444---22222222---00000000---00000000-------------------

Verse guitar 1 (16x)
1--------2-----------------------------------------------------
2--0-----------------------------------------------------------
3-----4--------------------------------------------------------
4--------------------------------------------------------------
5--------------------------------------------------------------
6--------------------------------------------------------------
   
[ Tab from: http://www.guitartabs.cc/tabs/b/boxcar_racer/watch_the_world_tab_ver_2.html ]
verse guitar 2 (4x)
1--------------------------------------------------------------
2--------------------------------------------------------------
3--444--333----------------------------------------------------
4--444--333--666--222------------------------------------------
5--222--111--666--222------------------------------------------
6------------444--000------------------------------------------
         
Chorus Guitar 1
1--------------------------------------------------------------
2--------------------------------------------------------------
3--4444444-----------------------------------------------------
4--xxxxxxx-----------------------------------------------------
5--2222222-----------------------------------------------------
6--------------------------------------------------------------

Chorus Guitar 2 (3x)
1--------------------------------------------------------------
2--------------------------------------------------------------
3-44444444-----------------------------------------------------
4-44444444---66666666---44444444---44444444--------------------
5-22222222---66666666---44444444---44444444--------------------
6------------44444444---22222222---22222222--------------------


Solo guitar 1
1--------------------------------------------------------------
2--0---0---2---0-----------------------------------------------
3----4---------------------------------------------------------
4--------------------------------------------------------------
5--------------------------------------------------------------
6--------------------------------------------------------------

Solo Guitar 2 
1--------------------------------------------------------------
2--------------------------------------------------------------
3---4----------------------------------------------------------
4---4----------------------------------------------------------
5---2----------------------------------------------------------
6--------------------------------------------------------------



Thats all I feel like doin now, any questions email me at 
Ryandude21@aol.com.

"It's so much easier, when seafoam green is in fashion"
Comments