Boxcar Racer - Watch The World Chords & Tabs

 

Watch The World Chords & Tabs

Boxcar Racer Chords & Tabs

Version: 1 Type: Tab 0 ratings
1 star 2 stars 3 stars 4 stars 5 stars
comments

Watch The World Tab

   
Artist: Boxcar Racer
Song: Watch the World





Intro
play 3x                   then
 E|--------------------|---------------------------------
 B|--------------------|---------------------------------
 G|--------------------|-----88--------------------------
 D|-9999999--/-11------|-----xx---99----88---------------
 A|-9999999--/--x------|-----66---xx----xx---------------
 E|-7777777--/--9------|----------77----66---------------


Verse

 E|--------------------------
 B|-----4----0----7----------
 G|--------------------------
 D|--------------------------
 A|--------------------------
 E|--------------------------


Chorus

 E|---------------------------------------------------------
 B|---------------------------------------------------------
 G|---------------------------------------------------------
 D|----9999999----9999999----9999999----8888888-------------
 A|----9999999----7777777----6666666----6666666-------------
 E|----7777777----7777777----7777777----6666666-------------

[ Tab from: http://www.guitartabs.cc/tabs/b/boxcar_racer/watch_the_world_tab.html ]
Part A
   Distorted                        Clean
 E|-------------------------------|-------------------------
 B|-------------------------------|-------------------------
 G|---888888----9----------88-----|--888888-----------------
 D|---888888----9----66----88-----|--888888-----------------
 A|---666666----7----66----66-----|--666666-----------------
 E|------------------44-----------|-------------------------


Solo
 E|---------------------------------------------------------
 B|---------------------------------------------------------
 G|---4-------4-----6----4----------------------------------
 D|-------4-------------------4-----------------------------
 A|---------------------------------------------------------
 E|---------------------------------------------------------


Last note
 E|-------------
 B|-------------
 G|-------------
 D|----9--------
 A|----x--------
 E|----7--------

Order of play

Intro   2x
Verse   16x
Intro   1x
Verse   16x
Chorus  3x
Part A  2x
Solo   8x
Chorus  4x w/ Verse joining in
Intro 2x


Comments