Boxcar Racer - Tiny Voices Chords & Tabs

 

Tiny Voices Chords & Tabs

Boxcar Racer Chords & Tabs

Version: 3 Type: Tab 0 ratings
1 star 2 stars 3 stars 4 stars 5 stars
comments

Tiny Voices Tab

TINY VOICES
BOX CAR RACER

intro
E|--------------------------------|
B|---------------9-9--------------|
G|---------------x-x---7777/66----|
D|-2-------------6-6---7777/66----|
A|-0--0-0-0-0-0------0-5555/44----|
E|----^-^-^-^-^-------------------|
^=palm mute

verse
E|------------------------|
B|------------------------|
G|------------------------|
D|-7-7777-777-777777------|
A|-0-0000-000-000000------|
E|------------------------|

chorus
E|----------------------------------------------|
B|----------------------------------------------|
G|---------888----------------------------------|
D|-222222--xxx--2222222--66666666--77777777-----|
A|-222222--666--2222222--77777777--77777777-----|
E|-000000-------0000000--44444444--55555555-----|
[ Tab from: http://www.guitartabs.cc/tabs/b/boxcar_racer/tiny_voices_tab_ver_3.html ]
E|-----------------------------------------------------------------------|
B|-----------------------------------------------------------------------|
G|-----------------------------------------------------------------------|
D|-----------------------------------------------------------------------|
A|-----------------------------------------------------------------------|
E|-6-6-6-6-6-6-6-6-6-6-6-6-6-6-6-6-6-6-6-6-6-6-6-6-6-6-6-6-6-6-6-6-------|
   ^ ^ ^ ^ ^ ^ ^ ^ ^ ^ ^ ^ ^ ^ ^ ^ ^ ^ ^ ^ ^ ^ ^ ^ ^ ^ ^ ^ ^ ^ ^ ^
^=palm mute
also, put your finger on the 6th fret as if you are doing a harmonic, do no press down all the way

interlude(guitar 1)
E|------------------------------------|------------------------------------|
B|------------------------------------|------------------------------------|
G|------------------------------------|------------------------------------|
D|-----2-----2-----------2-----2------|-----4-----4-----------4-----4------|
A|---0-----0-----0-----0-----0-----0--|---2-----2-----2-----2-----2-----2--|
E|-0-----0-----0-----0-----0-----0----|-0-----0-----0-----0-----0-----0----|

guitar 2
E|---------------------------------------|-----------------------------------------------------------|
B|---------------------------------------|-----------------------------------------------------------|
G|---------------------------------------|-----------------------------------------------------------|
D|---------------------------------------|-----------------------------------------------------------|
A|------2--------2--------2--------2-----|---0----0----0-0----0---0-----0----0----0-0----0----0------|
E|-0--0---0-0--0---0-0--0---0-0--0---0---|-0----0----0------0---0-----0----0----0------0----0---0----|

E|-------------------------------|
B|-------------------------------|
G|-------------------------------|
D|-------------------------------|
A|------------------0------------|
E|-0--------4----------------5---|
Comments