Boxcar Racer - There Is Chords & Tabs

 

There Is Chords & Tabs

Boxcar Racer Chords & Tabs

Version: 6 Type: Tab 0 ratings
1 star 2 stars 3 stars 4 stars 5 stars
comments

There Is Tab

Box Car Racer - "There Is"
==========================

[ Tab from: http://www.guitartabs.cc/tabs/b/boxcar_racer/there_is_tab_ver_6.html ]
[Verse]
e|--------------------------|
B|--------------------------|
G|---6--9--6----------------|
D|9--6--9--6--8-------------|
A|9--4--7--4--8-------------|
E|7-----------6-------------|

[Chorus]
E|--------------------------|
B|--------------------------|
G|---6--9--6----------------|
D|9--6--9--6----------------|
D|9--4--7--4----------------|
E|7-------------------------|

Enjoy.
Comments