Boxcar Racer - There Is Chords & Tabs

 

There Is Chords & Tabs

Boxcar Racer Chords & Tabs

Version: 5 Type: Tab 0 ratings
1 star 2 stars 3 stars 4 stars 5 stars
comments

There Is Tab

Intro:
E|----------------------------------------------------------------------------------------|
A|----------------------------------------------------------------------------------------|
D|--88-88-88-88---88888---66-66-66-66---66666---44-44-44-44---44444---66-666---33-333-----|   (2x)
G|--88-88-88-88---88888---66-66-66-66---66666---44-44-44-44---44444---66-666---33-333-----|
B|--66-66-66-66---66666---44-44-44-44---44444---22-22-22-22---22222---44-444---11-111-----|
E|----------------------------------------------------------------------------------------|


Verse:
E|--------------------------------------------------------------------------------------------|
A|--------------------------------------------------------------------------------------------|
D|--44-44-44-44---44444-----------------------------------------------99-99-99-99---99999-----|  (4x)
G|--44-44-44-44---44444---44-44-44-44---44444---66-66-66-66---66666---99-99-99-99---99999-----|
B|--22-22-22-22---22222---44-44-44-44---44444---66-66-66-66---66666---77-77-77-79---77777-----|
E|------------------------22-22-22-22---22222---44-44-44-44---44444---------------------------|

[ Tab from: http://www.guitartabs.cc/tabs/b/boxcar_racer/there_is_tab_ver_5.html ]
Chorus:
Guitar 1:
E|--------------------------------------------------------------------------------------------|
A|--------------------------------------------------------------------------------------------|
D|--44-44-44-44---44444-----------------------------------------------------------------------|  (2x)
G|--44-44-44-44---44444---44-44-44-44---44444---66-66-66-66---66666---44-44-44-44---44444-----|
B|--22-22-22-22---22222---44-44-44-44---44444---66-66-66-66---66666---44-44-44-44---44444-----|
E|------------------------22-22-22-22---22222---44-44-44-44---44444---22-22-22-22---22222-----|

Guitar 2:
E|--------------------------------------|
A|---0--0--0-2-0--0-0--0--0-2-0---------|
D|--------------------------------------|  (4x)
G|--------------------------------------|
B|--------------------------------------|
E|--------------------------------------|

Intro again only 1x

Verse 2x

Chorus 2x

Interlude:
E|----------------------------------------------------------------------------------------------|
A|----------------------------------------------------------------------------------------------|
D|--88-88-88-88---88888---99-99-99-99---99999------------88-88-88-88-88888---66-66-66-66-66666--|  (2x)
G|--88-88-88-88---88888---99-99-99-99---99999---(3x)-----88-88-88-88-88888---66-66-66-66-66666--|
B|--66-66-66-66---66666---77-77-77-77---77777------------66-66-66-66-66666---44-44-44-44-44444--|
E|----------------------------------------------------------------------------------------------|

Chorus 4x




If you have any comment e~mail me at confused_demon_1308@yahoo.com or
message me on Yahoo messenger – ID – mr_powderwings
Comments