Boxcar Racer - There Is Chords & Tabs

 

There Is Chords & Tabs

Boxcar Racer Chords & Tabs

Version: 4 Type: Tab 1 rating
1 star 2 stars 3 stars 4 stars 5 stars
comments

There Is Tab

There Is- Boxcar Racer
Accoustic
Tabbed by Tom D
[ Tab from: http://www.guitartabs.cc/tabs/b/boxcar_racer/there_is_tab_ver_4.html ]
Verse
E|---------------------------------------|
B|---------------------------------------|
G|-----7--5--7---------------------------|
D|--9--7--5--7--7------------------------|
A|--9--5--3--5--7------------------------|
E|--7-----------5------------------------|


Chorus
E|---------------------------------------|
B|---------------------------------------|
G|-----7--5--7---------------------------|
D|--9--7--5--7---------------------------|
A|--9--5--3--5---------------------------|
E|--7------------------------------------|

Comments