Boxcar Racer - There Is Chords & Tabs

 

There Is Chords & Tabs

Boxcar Racer Chords & Tabs

Version: 2 Type: Bass Tab 0 ratings
1 star 2 stars 3 stars 4 stars 5 stars
comments

There Is Bass Tab

   
Artist: Boxcar Racer
Title: There is
Tabbed By: Barry C  21/06/2005
Tuning: E-A-D-G

Tabs written out as its played and is 100% correct.try it.
Good Luck

Verse
G----------------------------------------------------------------------------------------------
D----------------------------------------------------------------------------------------------
A-6-6-6-6-6-6-6-6-6-6-6-6--4-4-4-4-4-4-4-4-4-4-4-4--2-2-2-2-2-2-2-2-2-2-2--4-4-4-4-4--1-1-1-1-1
E----------------------------------------------------------------------------------------------

G----------------------------------------------------------------------------------------------
D----------------------------------------------------------------------------------------------
A-6-6-6-6-6-6-6-6-6-6-6-6--4-4-4-4-4-4-4-4-4-4-4-4--2-2-2-2-2-2-2-2-2-2-2--4-4-4-4-4--1-1-1-1-1
E----------------------------------------------------------------------------------------------

G----------------------------------------------------------------------------------------------
D----------------------------------------------------------------------------------------------
A-6-6-6-6-6-6-6-6-6-6-6-6--4-4-4-4-4-4-4-4-4-4-4-4--2-2-2-2-2-2-2-2-2-2-2--4-4-4-4-4--1-1-1-1-1
E----------------------------------------------------------------------------------------------

G----------------------------------------------------------------------------------------------
D----------------------------------------------------------------------------------------------
A-6-6-6-6-6-6-6-6-6-6-6-6--4-4-4-4-4-4-4-4-4-4-4-4--2-2-2-2-2-2-2-2-2-2-2--4-4-4-4-4--1-1-1-1-1
E----------------------------------------------------------------------------------------------

G----------------------------------------------------------------------------------------------
D----------------------------------------------------------------------------------------------
A-6-6-6-6-6-6-6-6-6-6-6-6--4-4-4-4-4-4-4-4-4-4-4-4--2-2-2-2-2-2-2-2-2-2-2--4-4-4-4-4--1-1-1-1-1
E----------------------------------------------------------------------------------------------

G----------------------------------------------------------------------------------------------
D----------------------------------------------------------------------------------------------
A-6-6-6-6-6-6-6-6-6-6-6-6--4-4-4-4-4-4-4-4-4-4-4-4--2-2-2-2-2-2-2-2-2-2-2--4-4-4-4-4--1-1-1-1-1
E----------------------------------------------------------------------------------------------

Chorus
G-------------------------------------------------------------------------------------------------
D-------------------------------------------------------------------------------------------------
A-6-6-6-6-6-6-6-6-6-6-6-6--7-7-7-7-7-7-7-7-7-7-7-7--2-2-2-2-2-2-2-2-2-2-2-2--4-4-4-4-4-4-4-4-4-4-4
E-------------------------------------------------------------------------------------------------

G-------------------------------------------------------------------------------------------------
D-------------------------------------------------------------------------------------------------
A-6-6-6-6-6-6-6-6-6-6-6-6--7-7-7-7-7-7-7-7-7-7-7-7--2-2-2-2-2-2-2-2-2-2-2-2--4-4-4-4-4-4-4-4-4-4-4
E-------------------------------------------------------------------------------------------------

Verse
G----------------------------------------------------------------------------------------------
D----------------------------------------------------------------------------------------------
A-6-6-6-6-6-6-6-6-6-6-6-6--4-4-4-4-4-4-4-4-4-4-4-4--2-2-2-2-2-2-2-2-2-2-2--4-4-4-4-4--1-1-1-1-1
E----------------------------------------------------------------------------------------------
[ Tab from: http://www.guitartabs.cc/tabs/b/boxcar_racer/there_is_btab_ver_2.html ]
G----------------------------------------------------------------------------------------------
D----------------------------------------------------------------------------------------------
A-6-6-6-6-6-6-6-6-6-6-6-6--4-4-4-4-4-4-4-4-4-4-4-4--2-2-2-2-2-2-2-2-2-2-2--4-4-4-4-4--1-1-1-1-1
E----------------------------------------------------------------------------------------------

G----------------------------------------------------------------------------------------------
D----------------------------------------------------------------------------------------------
A-6-6-6-6-6-6-6-6-6-6-6-6--4-4-4-4-4-4-4-4-4-4-4-4--2-2-2-2-2-2-2-2-2-2-2--4-4-4-4-4--1-1-1-1-1
E----------------------------------------------------------------------------------------------

Chorus
G-------------------------------------------------------------------------------------------------
D-------------------------------------------------------------------------------------------------
A-6-6-6-6-6-6-6-6-6-6-6-6--7-7-7-7-7-7-7-7-7-7-7-7--2-2-2-2-2-2-2-2-2-2-2-2--4-4-4-4-4-4-4-4-4-4-4
E-------------------------------------------------------------------------------------------------

G-------------------------------------------------------------------------------------------------
D-------------------------------------------------------------------------------------------------
A-6-6-6-6-6-6-6-6-6-6-6-6--7-7-7-7-7-7-7-7-7-7-7-7--2-2-2-2-2-2-2-2-2-2-2-2--4-4-4-4-4-4-4-4-4-4-4
E-------------------------------------------------------------------------------------------------

Interlude  
G-----------------------------------------------
D-----------------------------------------------
A-----------------------------------------------
E-6-6-6-6-6-6-6-6-6-6-6-6--7-7-7-7-7-7-7-7-7-7-7

G-----------------------------------------------
D-----------------------------------------------
A-----------------------------------------------
E-6-6-6-6-6-6-6-6-6-6-6-6--7-7-7-7-7-7-7-7-7-7-7

G-----------------------------------------------
D-----------------------------------------------
A-----------------------------------------------
E-6-6-6-6-6-6-6-6-6-6-6-6--7-7-7-7-7-7-7-7-7-7-7

G-------------------------------------------------
D-------------------------------------------------
A-------------------------------------------------
E-2-2-2-2-2-2-2-2-2-2-2-2--4-4-4-4-4-4-4-4-4-4-4-4

(No Bass for part)
Do you care if i
dont know what to say
will you sleep tonight
will you think of me

Bass comes back in
G-------------------------------------------------------------------------------------------------
D-------------------------------------------------------------------------------------------------
A-6-6-6-6-6-6-6-6-6-6-6-6--7-7-7-7-7-7-7-7-7-7-7-7--2-2-2-2-2-2-2-2-2-2-2-2--4-4-4-4-4-4-4-4-4-4-4
E-------------------------------------------------------------------------------------------------

G-------------------------------------------------------------------------------------------------
D-------------------------------------------------------------------------------------------------
A-6-6-6-6-6-6-6-6-6-6-6-6--7-7-7-7-7-7-7-7-7-7-7-7--2-2-2-2-2-2-2-2-2-2-2-2--4-4-4-4-4-4-4-4-4-4-4
E-------------------------------------------------------------------------------------------------

G-----------------------------------------------------------------------------------------------------
D-----------------------------------------------------------------------------------------------------
A-6-6-6-6-6-6-6-6-6-6-6-6--7-7-7-7-7-7-7-7-7-7-7-7--2-2-2-2-2-2-2-2-2-2-2-2--4-4-4-4-4-4-4-4-4-4-4--2~
E-----------------------------------------------------------------------------------------------------
Comments