Boxcar Racer - Sorrow Chords & Tabs

 

Sorrow Chords & Tabs

Boxcar Racer Chords & Tabs

Version: 2 Type: Tab 4 ratings
1 star 2 stars 3 stars 4 stars 5 stars
comments

Sorrow Tab

SORROW
BOX CAR RACER

intro
E|--------------------------|
B|--------------------------|
G|--------------------------|
D|--------------------------|
A|-5--4-----7-----5--4------|
E|-------5-----5------------|

verse
E|--------------------------------------------------------------------------------------|
B|--------------------------------------------------------------------------------------|
G|--------------------------------------------------------------------------------------|
D|-77777777--666666666--44444444--66666666----77777777--66666666--44444444--666666-6/7--|
A|-00000000--000000000--00000000--00000000----00000000--00000000--00000000--000000-0-0--|
E|-55555555--444444444--22222222--44444444----55555555--44444444--22222222--444444-4/5--|

chorus(guitar 1)
E|------------------------------------------|
B|------------------------------------------|
G|------------------------------------------|
D|-77777777--66666666--44444444--666666666--|
A|-77777777--77777777--44444444--777777777--|
E|-55555555--44444444--22222222--444444444--|
[ Tab from: http://www.guitartabs.cc/tabs/b/boxcar_racer/sorrow_tab_ver_2.html ]
guitar 2
E|-------------------------------------------|
B|-------------------------------------------|
G|-6666--------66666666666666----------------|
D|-xxxx--7777--xxxxxxxxxxxxxx--77--66666666--|
A|-4444--7777--44444444444444--77--77777777--|
E|-------5555------------------55--44444444--|

interlude
E|----------------------------------------------------------|
B|----------------------------------------------------------|
G|---6------6------6------6------6------6------6---6-7-6----|
D|-----7------7------7------7------7------7------7-------7--|
A|-0------0------0------0------0------0------0--------------|
E|----------------------------------------------------------|
do this twice   then..

E|----------------|
B|----------------|
G|---6---6-7-6----|
D|-----7-------7--|
A|-0--------------|
E|----------------|
do this 8 times

if you want to do what the piano is doing during the part above this
(the thing where you have to do 8 times)   then these are the chords

E|-----------------------------------------------------------------------------------|
B|-----------------------------------------------------------------------------------|
G|-66666666--77777777--22222222--44444444----66666666--77777777--22222222--99999999--|
D|-77777777--77777777--22222222--44444444----77777777--77777777--22222222--99999999--|
A|-44444444--55555555--00000000--22222222----44444444--55555555--00000000--77777777--|
E|-----------------------------------------------------------------------------------|

then do the chorus a couple of times and end on..
E|----|
B|----|
G|----|
D|-7--|
A|-7--|
E|-5--|
Comments