Boxcar Racer - My First Punk Song Chords & Tabs

 

My First Punk Song Chords & Tabs

Boxcar Racer Chords & Tabs

Version: 4 Type: Tab 0 ratings
1 star 2 stars 3 stars 4 stars 5 stars
comments

My First Punk Song Tab

Song:  My First Punk Song
Album:  Self-Titled (Box Car Racer)
Artist:  Box Car Racer
Tabbed By:  Tony L. (Mackin_4_ever@hotmail.com)
Tuning: Standard

You can figure out the strumming on your own.

Intro/Verse
E -----------------------------------------
B -----------------------------------------
G ------6-------7--------------------------
D --7---6---6---7--------------------------
A --7---4---6---5--------------------------
E --5-------4------------------------------

Next Part

E -----------------------------------------
B -----------------------------------------
G -----5---5-------------------------------
D --2--5-5-5-------------------------------
A --2--7-5-7-------------------------------
E --0----7---------------------------------

Then this part again...
E -----------------------------------------
B -----------------------------------------
G ------6-------7--------------------------
D --7---6---6---7--------------------------
A --7---4---6---5--------------------------
E --5-------4------------------------------
[ Tab from: http://www.guitartabs.cc/tabs/b/boxcar_racer/my_first_punk_song_tab_ver_4.html ]
Then this
E -----------------------------------------
B -----------------------------------------
G -----------------------------------------
D --2--------------------------------------
A --2--------------------------------------
E --0--------------------------------------

Then this part again...
E -----------------------------------------
B -----------------------------------------
G ------6-------7--------------------------
D --7---6---6---7--------------------------
A --7---4---6---5--------------------------
E --5-------4------------------------------

Then this
E -----------------------------------------
B -----------------------------------------
G -----------------------------------------
D --2--------------------------------------
A --2--------------------------------------
E --0--------------------------------------

End On This...
E ------
B ------
G ------
D --7---
A --7---
E --5---

Or This
E ------
B ------
G --2---
D --2---
A --0---
E ------

This is my first tab I've actually bothered to type out, but Im sure its 100% right.
Comments