Boxcar Racer - Letters To God Chords & Tabs

 

Letters To God Chords & Tabs

Boxcar Racer Chords & Tabs

Version: 5 Type: Tab 0 ratings
1 star 2 stars 3 stars 4 stars 5 stars
comments

Letters To God Tab

Boxcar Racer 
     Letters to God

Intro
E/-----------------
B/-----------------
G/-----------------
D/---5---7---9-----
A/---5---7---9-----
E/---3---5---7-----

Verse 
E/------------
B/------------
G/------------
D/---5---9----
A/---5---9----
E/---3---7----
[ Tab from: http://www.guitartabs.cc/tabs/b/boxcar_racer/letters_to_god_tab_ver_5.html ]
Chorus
E/--------------------------
B/--------------------------
G/-------5------------------
D/---5---5---5---7---5------
A/---5---3---5---7---5------
E/---3---X---3---5---3------

Interlude
E/---------------------
B/---------------------
G/------------5--------
D/---7---5---5---5-----
A/---7---5---3---5-----
E/---5---3---X---3-----

I think this is right, but if it isn’t, mail me the 
right way: joeguy99@hotmail.com
 
By the way, u gotta figure out the rhythm on ur own.

             gideon





Comments