Boxcar Racer - Letters To God Chords & Tabs

 

Letters To God Chords & Tabs

Boxcar Racer Chords & Tabs

Version: 4 Type: Tab 0 ratings
1 star 2 stars 3 stars 4 stars 5 stars
comments

Letters To God Tab

--------------------------------------------------------------
LETTERS TO GOD - Box Car Racer
--------------------------------------------------------------

BY: *~*bLiNk*~*GiRl*~*182*~* blink_baby_girl_182@hotmail.com
 
Standard Tuning
// - slide

You have to listen to the song to get the exact rhythm.

Intro/Verse:  listen to song for how many times to play it
--------------------------------------------------------------
--------------------------------------------------------------
--------------------------------------------------------------
-2-2-2-2-2--//--5-5-5-5-5--2-2-2-2-2--//--5-5-5-5-5-----------
-2-2-2-2-2--//--5-5-5-5-5--2-2-2-2-2--//--5-5-5-5-5-----------
-0-0-0-0-0--//--3-3-3-3-3--0-0-0-0-0--//--3-3-3-3-3-----------
[ Tab from: http://www.guitartabs.cc/tabs/b/boxcar_racer/letters_to_god_tab_ver_4.html ]
Chorus: listen to song for how many times to play it
--------------------------------------------------------------
--------------------------------------------------------------
----------------5-5-5-5-5---------------------2-2-2-2-2-------
-2-2-2-2-2--//--5-5-5-5-5------5-5-5-5-5------2-2-2-2-2-------
-2-2-2-2-2--//--3-3-3-3-3------5-5-5-5-5------0-0-0-0-0-------
-0-0-0-0-0--//-----------------3-3-3-3-3----------------------

Bridge: 4x clean
--------------------------------------------------------------
--------------------------------------------------------------
---------------------------------------------5-5-5-5-5--------
-2-2-2-2-2--//--5-5-5-5-5--//--5-5-5-5-5-----5-5-5-5-5--------
-2-2-2-2-2--//--5-5-5-5-5--//--5-5-5-5-5-----3-3-3-3-3--------
-0-0-0-0-0--//--3-3-3-3-3--//--7-7-7-7-7----------------------

Play the intro 2x and chorus again with distortion.

That's pretty much it. I know it's not perfect so 
if you have corrections please email me. 
blink_baby_girl_182@hotmail.com
Comments