Boxcar Racer - Letters To God Chords & Tabs

 

Letters To God Chords & Tabs

Boxcar Racer Chords & Tabs

Version: 3 Type: Tab 0 ratings
1 star 2 stars 3 stars 4 stars 5 stars
comments

Letters To God Tab

   
Song: Letters To God
By: Boxcar Racer
Tabbed By: Stephen Clark
	
Chords:
  G     A     Em     C
e-------------0-----------------------
b-------------0-----------------------
g-------------0------5----------------
d-5-----7-----2------5----------------
a-5-----7-----2------3----------------
E-3-----5-----0------X----------------

Intro: 
  G     A     Em     A
e-------------0-----------------------
b-------------0-----------------------
g-------------0-----------------------
d-5-----7-----2------7----------------
a-5-----7-----2------7----------------
E-3-----5-----0------5----------------
[ Tab from: http://www.guitartabs.cc/tabs/b/boxcar_racer/letters_to_god_tab_ver_3.html ]
Verse: 
  G     Em
e-------0------
b-------0------
g-------0------
d-5-----2------
a-5-----2------
E-3-----0------

Chorus: 
  G     C     G     Em     G     
e-------------------0---------------
b-------------------0---------------
g-------5-----------0---------------
d-5-----5-----5-----2------5--------
a-5-----3-----5-----2------5--------
E-3-----X-----3-----0------3--------

Interlude: 
  Em    G     C     G
e-0-----------------------------------
b-0-----------------------------------
g-0-----------5-----------------------
d-2-----5-----5------5----------------
a-2-----5-----3------5----------------
E-0-----3-----x------3---------------- 

Well that's all folks. If you have any comments or 
think you know it better than 
e-mail me at acromoose@aol.com


	



Comments