Boxcar Racer - I Feel So Chords & Tabs

 

I Feel So Chords & Tabs

Boxcar Racer Chords & Tabs

Version: 6 Type: Tab 0 ratings
1 star 2 stars 3 stars 4 stars 5 stars
comments

I Feel So Tab

   
boxcar racer
i feel so



e------------------------------------------------------------
b-----------------------------------------------------------
g---5--------------------------------------------------------
d---5-----bend whole chord--------------------------------
a---3------------------------------------------------------
e----------------------------------------------------------

e-----------------------------------
b------------------------------------
g-5
d-5 like a gazillion times just listen to song.
a-7
e-----------------------------------

e----------------------------------------------
b--------------------------------------------
g--3-3-3-3--9--------------------------------
d--3-3-3-3--9---play four times then go to
a--5-5-5-5--7-------------------------------
e------------------------------------------------

e----------------------------------------------
b---------------------------------------
g-------------------------------------------------------
d-5/4--2/4-------------------------------------------
a-------------------------------------------------
e------------------------------------------------
[ Tab from: http://www.guitartabs.cc/tabs/b/boxcar_racer/i_feel_so_tab_ver_6.html ]
then lead comes in with

e---------------------------------------------------------
b------------------------------------------------------
g-3-3--4-4---------------------------------------------------
d-5-5--4-4--4-4--3-3-----------------------------------------
a-5-5--2-2--4-4--3-3--do that then it goes to tthe chourus
e-----------2-2--5-5--------------------------------------------

e---------------------------------------------------------------
b------------------------------------------------------------------
g--7----7----4-------------------------------------------------------
d--7----7----4----not right rythem- easy to figure out thoughe.
a--5----4----2-----------------------------------------------------
e---------------------------------------------------------------------

bridge

e--------------------------------------------------
b----------------------------------------------------
g--9----------------------------------------------------
d--9---keep playen not hard to fing rythem---------------
a--7----------------------------------------------------------
e------------------------------------------------------

by stevo Arrington e-mail me for questions at blinkme_me@hotmail.com
Comments