Boxcar Racer - I Feel So Chords & Tabs

 

I Feel So Chords & Tabs

Boxcar Racer Chords & Tabs

Version: 2 Type: Tab 0 ratings
1 star 2 stars 3 stars 4 stars 5 stars
comments

I Feel So Tab

e-----------------------------------------------------------
b-----------------------------------------------------------
g-----------------------------------------------------------
d---5-------------------------------------------------------
a---5-------------------------------------------------------
e---3-------------------------------------------------------

e------------------------------------
b------------------------------------
g-3----------------------------------
d-3----------------------------------
a-5----------------------------------
e------------------------------------

e----------------------------------------------
b----------------------------------------------
g-----------3----------------------------------
d--3-3-3-3--3--play four times then go to------
a--3-3-3-3--5----------------------------------
e--1-1-1-1-------------------------------------
[ Tab from: http://www.guitartabs.cc/tabs/b/boxcar_racer/i_feel_so_tab_ver_2.html ]
e----------------------------------------------
b----------------------------------------------
g--------55------------------------------------
d-----5-----------55------twice----------------
a---3----------5-------------------------------
e-------------3--------------------------------

then lead comes in with

e-----------------------------------------------------
b-----------------------------------------------------
g-----------5-5---------------------------------------
d-3-3-3-3---5-5---------------------------------------
a-3-3-3-3---3-3---------------------------------------
e-1-1-1-1---------------------------------------------

Chorus
e---------------------------------------------------------------
b---------------------------------------------------------------
g-7------------5------------------------------------------------
d-7---7----5---5------------------------------------------------
a-5---7----5---3------------------------------------------------
e-----5----3----------------------------------------------------

bridge

e--------------------------------------------------
b--------------------------------------------------
g--9-----------------------------------------------
d--9---keep playen not hard to fing rythem---------
a--7-----------------------------------------------
e--------------------------------------------------
Comments