Boxcar Racer - I Feel So Chords & Tabs

 

I Feel So Chords & Tabs

Boxcar Racer Chords & Tabs

Version: 1 Type: Chords 1 rating
1 star 2 stars 3 stars 4 stars 5 stars
comments

I Feel So Chords

Artist:Box Car Racer
Song: I feel so
Album:Box Car Racer
Transcribed by : Julio Cesar Saldaña

Well hi everybody. This is my version of this excellent song of "Box Car Racer"
I hope you like it

After the piano the bass and the second guitar play this

Intro

e|--1h3--1h3-----1h3--1h3----------------------------------------|
B|--3h5--3h5--5--3h5--3h5--5------ play this     ----------------|
G|--3h5--3h5--7--3h5--3h5--7------ a lotta       ----------------|
D|------------7------------7------ more          ----------------|
A|-------------------------------- times         ----------------|
E|---------------------------------------------------------------|

Verse (Riff)
e|---------------------------------------------------------------|
B|---------------------------------------------------------------|
G|----4------4------4----4---------------------------------------|
D|--5---5-44---4-22---44---4-keep playing------------------------|
A|---------------------------------------------------------------|
E|---------------------------------------------------------------|

After the line "I wish I could feel no pain" Play this
[ Tab from: http://www.guitartabs.cc/tabs/b/boxcar_racer/i_feel_so_crd.html ]
Verse
e|--3-3--2-2---0-0--2-2-|
B|--5-5--4-4---2-2--4-4-|
G|--5-5--4-4---2-2--4-4-|         Play this two times
D|----------------------|
A|----------------------|
E|----------------------|

Chorus

e|---------------------------------------------------------------|
B|--7-7-7-7-7--6-6-6-6-6--4-4-4-4-4--6-6-6-6-6-------------------|
G|--9-9-9-9-9--8-8-8-8-8--6-6-6-6-6--8-8-8-8-8-------------------| Play this
D|--9-9-9-9-9--8-8-8-8-8--6-6-6-6-6--8-8-8-8-8-------------------| two times
A|---------------------------------------------------------------|
E|---------------------------------------------------------------|

Then play all of this again

Before the travis drum solo play the verse four times and then in the travis
drum solo play this

e|---------------------------------------------------------------|
B|--2-2-2-2-2-2-2-2-2-2--2-2-2-2-2-2-2-2-2-2---------------------|
G|--4-4-4-4-4-4-4-4-4-4--4-4-4-4-4-4-4-4-4-4---------------------|
D|--4-4-4-4-4-4-4-4-4-4--4-4-4-4-4-4-4-4-4-4---------------------|
A|---------------------------------------------------------------|
E|---------------------------------------------------------------|

Play this more times and then stop  later play the chorus and that´s it



Any coments or corrections please writte to

justdoit182@yahoo.com.mx
Comments