Boxcar Racer - Feel So Chords & Tabs

 

Feel So Chords & Tabs

Boxcar Racer Chords & Tabs

Version: 1 Type: Tab 0 ratings
1 star 2 stars 3 stars 4 stars 5 stars
comments

Feel So Tab

Band: Box Car Racers
Song: I feel so
Cd:?
Tabbed by: A.J. F.

e------------------------------------------
B------------------------------------------
G-----------------777----------------------
D-----------------xxx-----------------------
A----5--5--5--5---555-------------------------
E---2/3-3-2/3-3----------------------------------------


e------------------------------------------
B------------------------------------------
G------------------------------------------
D------------------------------------------
A-10-10-9-9-7-7-9-9----------------------------------
E------------------------------------------
[ Tab from: http://www.guitartabs.cc/tabs/b/boxcar_racer/feel_so_tab.html ]
e------------------------------------------
B------------------------------------------
G------------------------------------------
D------------------------------------------
A-5-5---4-4-------------------------------------
E-3-3---2-2-------------------------------------


e------------------------------------------
B------------------------------------------
G------------------------------------------
D--------------88888888-66666666-88888888-
A-222222222----66666666-44444444-666666666-
E-000000000------------------------------------------


e------------------------------------------
B------------------------------------------
G--4444444444444444444---------------------
D--xxxxxxxxxxxxxxxxxxx--------------------
A--2222222222222222222-------
E--------------------------------------------


email me anything  (guitar15453@aol.com)
Comments