Boxcar Racer - End With You Chords & Tabs

 

End With You Chords & Tabs

Boxcar Racer Chords & Tabs

Version: 4 Type: Tab 0 ratings
1 star 2 stars 3 stars 4 stars 5 stars
comments

End With You Tab

THE END WITH YOU(CORRECT)
BOX CAR RACER

intro
E|---------------------------------------------------------|
B|---------------------------------------------------------|
G|-66666666666666666666666666666666------------------------|
D|-xxxxxxxxxxxxxxxxxxxxxxxxxxxxxxxx------------------------|
A|-44444444444444444444444444444444------------------------|
E|---------------------------------------------------------|

E|----------------------------------------|
B|----------------------------------------|
G|---------------------6------------------|
D|-444-6-77777777--6-7-6------------------|
A|-444-6-77777777--6-7-4------------------|
E|-222-4-55555555--4-5--------------------|

verse
E|-------------------------------------------|
B|-------------------------------------------|
G|-------------------------------------------|
D|-444-6-77--------(77)----------------------|
A|-444-6-77--(444)-(55)-(44)-----------------|
E|-222-4-55--(222)------(22)-----------------|
(palm mute)
[ Tab from: http://www.guitartabs.cc/tabs/b/boxcar_racer/end_with_you_tab_ver_4.html ]
E|---------------------------------------|
B|---------------------------------------|
G|---------------------------------------|
D|-(2222222)--------(77)-----------------|
A|-(0000000)-(444)--(55)--(44)-----------|
E|-----------(222)--------(22)-----------|
(palm mute)

this is right before chorus
E|------------------------------------------|
B|------------------------------------------|
G|--66666666666666666-----------------------|
D|--xxxxxxxxxxxxxxxxx-----------------------|
A|--44444444444444444-----------------------|

chorus
E|------------------------------------------------|
B|------------------------------------------------|
G|-----------------------------------777----------|
D|-7777777777777777--66666666--4444--777----------|
A|-7777777777777777--77777777--4444--555----------|
E|-5555555555555555--44444444--2222---------------|

interlude thing
E|-----------------------------------|
B|-----------------------------------|
G|-------------666--7----------------|
D|-444--6--7---xxx--x--9-------------|
A|-xxx--x--x---444--5--x-------------|
E|-222--4--5-----------7-------------|
Comments