Boxcar Racer - End With You Chords & Tabs

 

End With You Chords & Tabs

Boxcar Racer Chords & Tabs

Version: 3 Type: Tab 0 ratings
1 star 2 stars 3 stars 4 stars 5 stars
comments

End With You Tab

the end with you
Boxcar racer
Email me at Rwehby111@hotmail.com on what u think of the tab

Intro

E-----------------------------------------------------------
B-----------------------------------------------------------
G----6-6-6-6-6-6--------------------------------------------
D----x-x-x-x-x-x--and so on---------------------------------
A----4-4-4-4-4-4--------------------------------------------
E-----------------------------------------------------------

Main Riff (s)=Slide

E-----------------------------------------------------------
B-----------------------------------------------------------
G----------------------------------------6------------------
D--4-4-4------6-----7-7-7-7-7-7-7-7------x------------------
A--4-4-4--(s)-6-(s)-7-7-7-7-7-7-7-7------4------------------
E--2-2-2------4-----5-5-5-5-5-5-5-5--4-5--------------------

Verse

E-----------------------------------------------------------
B-----------------------------------------------------------
G-----------------------------------------------------------
D-----------------------------------------------------------
A-------------------------4-4-------------------------------
E--5-5-5-5-5-(pause)2-2-2-----2-2---------------------------

Interlude
[ Tab from: http://www.guitartabs.cc/tabs/b/boxcar_racer/end_with_you_tab_ver_3.html ]
E-----------------------------------------------------------
B-----------------------------------------------------------
G----6-6-6-6-6-6--------------------------------------------
D----x-x-x-x-x-x--and so on---------------------------------
A----4-4-4-4-4-4--------------------------------------------
E-----------------------------------------------------------

Chorus

E-----------------------------------------------------------
B-----------------------------------------------------------
G--------------------------------7-7------------------------
D---7-7-7-7-7-7-7--7-7-7-7--4-4--7-7------------------------
A---7-7-7-7-7-7-7--7-7-7-7--4-4--5-5------------------------
E---5-5-5-5-5-5-5--4-4-4-4--2-2-----------------------------

Cool little high-hat riff thing (s)=slide

E-----------------------------------------------------------
B-----------------------------------------------------------
G--------------------------4-4-4-----7-----4----------------
D--4-4-4-------6-----7-----x-x-x-(s)-x-(s)-x----------------
A--x-x-x--(s)--x-(s)-x-----2-2-2-----5-----2----------------
E--2-2-2-------4-----5--------------------------------------


Well im pretty sure this is right. 
Well you can figure out the order but al the parts are there.O yeh listen to 
the song to find out how many times to play each note - Ryan

Comments