Boxcar Racer - End With You Chords & Tabs

 

End With You Chords & Tabs

Boxcar Racer Chords & Tabs

Version: 1 Type: Tab 0 ratings
1 star 2 stars 3 stars 4 stars 5 stars
comments

End With You Tab

THE END WITH YOU
BOX CAR RACER

intro
E|-----------------------------------|
B|-----------------------------------|
G|-66666666666666666666666666666666--|
D|-xxxxxxxxxxxxxxxxxxxxxxxxxxxxxxxx--|
A|-44444444444444444444444444444444--|
E|-----------------------------------|

E|-----------------------|
B|-----------------------|
G|--------------------6--|
D|-444-6-7777777-6-7--6--|
A|-444-6-7777777-6-7--4--|
E|-222-4-5555555-4-5-----|

E|-------------------------|
B|-------------------------|
G|----------------------6--|
D|-444-6-77777777-6-7---6--|
A|-444-6-77777777-6-7---4--|
E|-222-4-55555555-4-5------|
do this 4 times   then...

E|--------------------------|
B|--------------------------|
G|--------------------------|
D|-444-6-77---------77------|
A|-444-6-77----444--55--44--|
E|-222-4-55----222--^^--22--|
               ^^^      ^^
^=palm mute
[ Tab from: http://www.guitartabs.cc/tabs/b/boxcar_racer/end_with_you_tab.html ]
verse
E|-----------------------|
B|-----------------------|
G|-----------------------|
D|-2222222-------77------|
A|-0000000--444--55--44--|
E|-^^^^^^^--222--^^--22--|
            ^^^      ^^
^=palm mute

do this before chorus
E|-------------------|
B|-------------------|
G|-6666666666666666--|
D|-xxxxxxxxxxxxxxxx--|
A|-4444444444444444--|
E|-------------------|

chorus
E|----------------------------------------|
B|----------------------------------------|
G|------------------------------------77--|
D|-7777777777777777--66666666--44444--77--|
A|-7777777777777777--77777777--44444--55--|
E|-5555555555555555--44444444--22222------|

interlude
E|-------------------------------|
B|-------------------------------|
G|-------------------------------|
D|-4-4-4/6--7----11-11-11/12--7--|
A|-x-x-x-x--x----x--x--x--x---x--|
E|-2-2-2/4--5----9--9--9/-10--5--|
this is played 6 times

then do the chorus twice and end with the intro
Comments