Boxcar Racer - Elevator Chords & Tabs

 

Elevator Chords & Tabs

Boxcar Racer Chords & Tabs

Version: 4 Type: Tab 0 ratings
1 star 2 stars 3 stars 4 stars 5 stars
comments

Elevator Tab

ELEVATOR
BOX CAR RACER

Riff 1
E|----------------------------------------------------------------------------------|
B|------------------------------------------------------(0)-------------------------|
G|---------------------------------------------0--------(0)---------(0)--------(0)--|
D|----------5-----4-5------5------5---5-5-5-5--5---5-5-5------5-5-5-(5)--5-5-5-(5)--|
A|------------------------------------3-3-3-3------3-3-3------2-2-2------2-2-2------|
E|-3-3-3-3-----3-------3-3----3-3---------------------------------------------------|
(uptroke in parenthesis)
play this twice
[ Tab from: http://www.guitartabs.cc/tabs/b/boxcar_racer/elevator_tab_ver_4.html ]
Riff 2
E|----------------------------------------------------------------------------------|
B|------------------------------------------------------(0)-------------------------|
G|--------------------------------------------0---------(0)---------(0)--------(0)--|
D|----------4-5----5------5------5---5-5-5-5--5---5-5-5-------5-5-5-(5)--5-5-5-(5)--|
A|-----------------------------------3-3-3-3------3-3-3-------2-2-2------2-2-2------|
E|-3-3-3-3-------3----3-3----3-3----------------------------------------------------|
(upstroke in parenthesis)
this is played 6 times
then play riff 1 once
then you play riff 2 for the rest of the song

Comments