Boxcar Racer - Cat Like Thief Chords & Tabs

 

Cat Like Thief Chords & Tabs

Boxcar Racer Chords & Tabs

Version: 4 Type: Tab 0 ratings
1 star 2 stars 3 stars 4 stars 5 stars
comments

Cat Like Thief Tab

CAT LIKE THIEF
BOX CAR RACER

intro, verse
E|-----------------------------------------------------------------|
B|-----------------------------------------------------------------|
G|-----------------------------------------------------------------|
D|-----7-------7-------7-------7-------7-------7-------7-------7---|
A|-0-0---0-0-0---0-4-4---4-4-4---4-5-5---5-5-5---5-5-5---5-5-5---5-|
E|-----------------------------------------------------------------|
[ Tab from: http://www.guitartabs.cc/tabs/b/boxcar_racer/cat_like_thief_tab_ver_4.html ]
chorus
E|----------------------------------------|
B|----------------------------------------|
G|-66666666-77777777-9999999999999999-----|
D|-77777777-77777777-9999999999999999-----|
A|-44444444-55555555-7777777777777777-----|
E|----------------------------------------|

outrow thing

E|-------12---------12----9----9----9----9-------|
B|-10-10---10-10-10---10----10---10---10---10----|
G|-----------------------------------------------|
D|-----------------------------------------------|
A|-----------------------------------------------|
E|-----------------------------------------------|
Comments