Boxcar Racer - Cat Like Thief Chords & Tabs

 

Cat Like Thief Chords & Tabs

Boxcar Racer Chords & Tabs

Version: 2 Type: Tab 0 ratings
1 star 2 stars 3 stars 4 stars 5 stars
comments

Cat Like Thief Tab

CAT LIKE THIEF
BOX CAR RACER

guitar 1
E|----------------------------------------------------------------------|
B|----------------------------------------------------------------------|
G|----------------------------------------------------------------------|
D|-----7-------7--------7-------7--------7-------7-------7-------7------|
A|-0-0---0-0-0---0--4-4---4-4-4---4--5-5---5-5-5---5-5-5---5-5-5---5----|
E|----------------------------------------------------------------------|

guitar 2
E|---------------------------------------------------------------------------------------------------|
B|---------------------------------------------------------------------------------------------------|
G|-------14----------14-----------14----------14-----------14----------14----------14----------14----|
D|--------------------------11-11----11-11-11----11--12-12----12-12-12----12-12-12----12-12-12----12-|
A|-12-12----12-12-12----12---------------------------------------------------------------------------|
E|---------------------------------------------------------------------------------------------------|
[ Tab from: http://www.guitartabs.cc/tabs/b/boxcar_racer/cat_like_thief_tab_ver_2.html ]
chorus guitar 1
E|-------------------------------------------|
B|-------------------------------------------|
G|-66666666--77777777--9999999999999999------|
D|-77777777--77777777--9999999999999999------|
A|-44444444--55555555--7777777777777777------|
E|-------------------------------------------|

guitar 2
E|----------------------------------------------------------------------------------------------------|
B|----------------------------------------------------------------------------------------------------|
G|-------14----------14-----------14----------14-----------14----------14----------14----------14-----|
D|-11-11----11-11-11----11--12-12----12-12-12----12--14-14----14-14-14----14-14-14----14-14-14----14--|
A|----------------------------------------------------------------------------------------------------|
E|----------------------------------------------------------------------------------------------------|

ending part
E|-------12----------12----9----9----9----9---------|
B|-10-10----10-10-10---10----10---10---10---10------|
G|--------------------------------------------------|
D|--------------------------------------------------|
A|--------------------------------------------------|
E|--------------------------------------------------|
Comments