Boxcar Racer - Cat Like Thief Chords & Tabs

 

Cat Like Thief Chords & Tabs

Boxcar Racer Chords & Tabs

Version: 1 Type: Tab 0 ratings
1 star 2 stars 3 stars 4 stars 5 stars
comments

Cat Like Thief Tab

Intro/Verse
e--------------------------------------------------
b--------------------------------------------------
g----2-----2-----2-----2-----2------2-----2-----2--
d--------------------------00--0--00-0--00-0--00-0-
a--00-0--00-0--44-4--44-4--------------------------
e--------------------------------------------------

e------------
b------------ 
g--2---------  this is the chorus but i am not sure about it
d--2---------  strum it and listen to the song to get the beat.
a--0---------
e------------


[ Tab from: http://www.guitartabs.cc/tabs/b/boxcar_racer/cat_like_thief_tab.html ]
Comments