Boxcar Racer - And I Chords & Tabs

 

And I Chords & Tabs

Boxcar Racer Chords & Tabs

Version: 1 Type: Tab 0 ratings
1 star 2 stars 3 stars 4 stars 5 stars
comments

And I Tab

   
this song is pretty cool so u might wanna try to play it

Intro (Play 6x)
E---------------------------------------------
B---------------------------------------------
G---------------------------------------------
D-11-11-11-11-11-11-11-11--7-7--9-9-9-9--7-7--
A--x--x--x--x--x--x--x--x--x-x--x-x-x-x--x-x--
E--9--9--9--9--9--9--9--9--5-5--7-7-7-7--5-5--

2nd part of intro 
E---------------------------------
B---------------------------------
G-7-7-7-7-7-7-7-7-----------------
D-7-7-7-7-7-7-7-7-9-9-9-9-5-5-5-5-
A-5-5-5-5-5-5-5-5-9-9-9-9-5-5-5-5-
E-----------------7-7-7-7-3-3-3-3-

after intro before verse 
E----------------
G----------------
B--7-------------
D--7-(let it ring)
A--5-------------
E----------------

Verse 
E----------------------------
G----------------------------
B--777777--------------------
D--777777--------------------
A--555555--------------------(play till verse is over)
E----------------------------
[ Tab from: http://www.guitartabs.cc/tabs/b/boxcar_racer/and_i_tab.html ]
chorus 
E---------------------------------
B---------------------------------
G-7-7-7-7-7-7-7-7-----------------
D-7-7-7-7-7-7-7-7-9-9-9-9-5-5-5-5-
A-5-5-5-5-5-5-5-5-9-9-9-9-5-5-5-5-
E-----------------7-7-7-7-3-3-3-3-
and I wnat her need...

2nd part of chorus
E---------------------------------
B---------------------------------
G-7-7-7-7-7-7-7-7-----------------
D-7-7-7-7-7-7-7-7-9-9-9-9-5-5-5-5-
A-5-5-5-5-5-5-5-5-9-9-9-9-5-5-5-5-
E-----------------7-7-7-7-3-3-3-3-
and you always will....

repeat verse 

and chorus 

Interlude 
e---------------------------------------------------------
B---------------------------------------------------------
G-7-7-7--7-7-7----9-9-9--9-9-9----------------------------
D-7-7-7--7-7-7----9-9-9--9-9-9--9-9-9--9-9-9--------------
A-5-5-5--5-5-5----7-7-7--7-7-7--9-9-9--9-9-9--5-5-5--5-5-5
E-------------------------------7-7-7--7-7-7--3-3-3--3-3-3

thats basicaly the whole song email me if u got any questions or comments at
igordragovich@hotmail.com

   
Comments