Boxcar Racer - All Systems Go Chords & Tabs

 

All Systems Go Chords & Tabs

Boxcar Racer Chords & Tabs

Version: 4 Type: Tab 0 ratings
1 star 2 stars 3 stars 4 stars 5 stars
comments

All Systems Go Tab

ALL SYSTEMS GO
BOX CAR RACER

intro
E|-----------------------------------------|
B|-----------------------------------------|
G|-----------------------------------------|
D|-7777-777-777777--777777-777-777777------|
A|-0000-000-000000--000000-000-000000------|
E|-5555-555-555555--555555-555-555555------|

intro part two
E|-------------------------------------------------------------|
B|-------------------------------------------------------------|
G|------666---------------------------66-4---------------------|
D|-777--666--666--777--66--22----777--66-4--666--777--66--22---|
A|-777--444--666--777--66--22----777--44-4--666--777--66--22---|
E|-555--444--444--555--44--00----555--44-4--444--555--44--00---|
do this twice
[ Tab from: http://www.guitartabs.cc/tabs/b/boxcar_racer/all_systems_go_tab_ver_4.html ]
verse
E|----------------------------------------------------------------------|
B|----------------------------------------------------------------------|
G|--------------------------------6-6-6-6-6-6-6-------------------------|
D|-7-7-7-7-7-7-7-7-7-7-7-7-7-7-7--x-x-x-x-x-x-x-----4-4-4-4-4--6-6-6-6--|
A|-0-0-0-0-0-0-0-0-0-0-0-0-0-0-0--4-4-4-4-4-4-4-----0-0-0-0-0--0-0-0-0--|
E|-5-5-5-5-5-5-5-5-5-5-5-5-5-5-5--5-5-5-5-5-5-5--0--2-2-2-2-2--4-4-4-4--|

chorus
E|--------------------------------------------|
B|--------------------------------------------|
G|-55555555--44444444--22222222---------------|
D|-55555555--55555555--22222222--33333333-----|
A|-33333333--22222222--00000000--33333333-----|
E|-------------------------------11111111-----|

interlude
E|----------------------------------------|
B|----------------------------------------|
G|----------------------------------------|
D|-7777777777777777--7777777777777777-----|
A|-0000000000000000--7777777777777777-----|
E|-^^^^^^^^^^^^^^^^--^^^^^^^^^^^^^^^^-----|
^=palm mute
do this 3 times and then end it on...
E|------------------------|
B|------------------------|
G|------------------------|
D|-7777777777777777-------|
A|-0000000000000000-------|
E|-^^^^^^^^^^^^^^^^--0----|
                     ^
^=palm mute
to make that other sound just bang your strings

then do chorus twice and the second part 3 times and then end it on..
E|--------------------------|
B|--------------------------|
G|------66-4----------------|
D|-777--66-4--666/7---------|
A|-777--44-4--666/7---------|
E|-555--44-4--444/5---------|

Comments