Boxcar Racer - All Systems Go Chords & Tabs

 

All Systems Go Chords & Tabs

Boxcar Racer Chords & Tabs

Version: 3 Type: Tab 0 ratings
1 star 2 stars 3 stars 4 stars 5 stars
comments

All Systems Go Tab

all systems go
box car racer

intro
E|-------------------------------------------|
B|-------------------------------------------|
G|-------------------------------------------|
D|-7777-777-777777-777777-777-777777---------|
A|-0000-000-000000-000000-000-000000---------|
E|-5555-555-555555-555555-555-555555---------|

E|----------------------------------------------|
B|----------------------------------------------|
G|-----666-------------------66-4---------------|
D|-777-666-666-77-22----777--66-4-666-77-22-----|
A|-777-444-666-77-22----777--44-4-666-77-22-----|
E|-555-444-444-55-00----555--44-4-444-55-00-----|
[ Tab from: http://www.guitartabs.cc/tabs/b/boxcar_racer/all_systems_go_tab_ver_3.html ]
verse
E|------------------------------------------------------------------------------|
B|------------------------------------------------------------------------------|
G|------------------------------------------------------------------------------|
D|-7-7-7-7-7-7-7-7-7-7-7-7-7-7-7---11-11-11-11-11-11-11---4-4-4-4-4--6-6-6-6----|
A|-0-0-0-0-0-0-0-0-0-0-0-0-0-0-0---0--0--0--0--0--0--0----0-0-0-0-0--0-0-0-0----|
E|-5-5-5-5-5-5-5-5-5-5-5-5-5-5-5---9--9--9--9--9--9--9--0-2-2-2-2-2--4-4-4-4----|

chorus
E|-------------------------------------------|
B|-------------------------------------------|
G|-55555555-44444444-22222222----------------|
D|-55555555-55555555-22222222--33333333------|
A|-33333333-22222222-00000000--33333333------|
E|-----------------------------11111111------|

interlude thing(palm mute)
E|-------------------------------------------|
B|-------------------------------------------|
G|-------------------------------------------|
D|-7777777777777777-----7777777777777777-----|
A|-0000000000000000-----7777777777777777-----|
E|-------------------------------------------|
Comments