Boxcar Racer - All Systems Go Chords & Tabs

 

All Systems Go Chords & Tabs

Boxcar Racer Chords & Tabs

Version: 1 Type: Tab 0 ratings
1 star 2 stars 3 stars 4 stars 5 stars
comments

All Systems Go Tab

all systems go
box car racer

INTRO
E-------------------------------------------------
B-------------------------------------------------
G-------------------------------------------------
D--7777-777-777777-777777-777-777777--------------
A--0000-000-000000-000000-000-000000--------------
E--5555-555-555555-555555-555-555555--------------

SECOND INTRO
E---------------------------------
B---------------------------------
G-----666-------------------------
D-777-666-666-777-66-22-----------
A-777-444-666-777-66-22-----------
E-555-444-444-555-44-00-----------
[ Tab from: http://www.guitartabs.cc/tabs/b/boxcar_racer/all_systems_go_tab.html ]
VERSE
E------------------------------------------------------
B------------------------------------------------------
G------------------------------------------------------
D-7777777777777-(1111111111111)--44444-6666------------
A-0000000000000--0-0-0-0-0-0-0---00000-0000------------
E-5555555555555--9-9-9-9-9-9-9---22222-4444------------
(ELEVENS, NOT ONES)

CHORUS
E-------------------------------------------------
B-------------------------------------------------
G-55555555-44444444--22222222---------------------
D-55555555-55555555--22222222--33333333-----------
A-33333333-22222222--00000000--33333333-----------
E------------------------------11111111-----------

INTERLUDE PART
E-------------------------------------------------
B-------------------------------------------------
G-------------------------------------------------
D-7777777777777777--7777777777777777--------------
A-0000000000000000--7777777777777777--------------
E-------------------------------------------------
PALM MUTE THIS
THEN CHORUS TWICE
THIS TAB CORRECTLY DONE BY RYAN
Comments