Box Car Racer - Watch The World Chords & Tabs

 

Watch The World Chords & Tabs

Box Car Racer Chords & Tabs

Version: 7 Type: Tab 0 ratings
1 star 2 stars 3 stars 4 stars 5 stars
comments

Watch The World Tab

   
Watch the world from Boxcar racer...

Song:-Watch the world
Artist:-Boxcar racer

Hay dudes this is im way of playin this song it mite b a bit different 2 the cd but its
how tom plays it trust me....

Tuning:-1/2 step down
(Eb,Ab,Db,Gb,Bb,Eb)

Intro-
eb|----------------------------------------------|
Bb|----------------------------------------------|
Gb|-7----7/9---7-----7/9-------11-----6---6/7----|
Db|-7----7/9---7-----7/9--3----11-----6---6/7----|
Ab|-5----5/7---5-----5/7--5-----9-----4---4/5----|
Eb|-7----------5----------7----------------------|

eb|----------------------------------------------|
Bb|----------------------------------------------|
Gb|-7----7/9---7-----7/9-------11-----6---6/7----|
Db|-7----7/9---7-----7/9--3----11-----6---6/7----|
Ab|-5----5/7---5-----5/7--5-----9-----4---4/5----|
Eb|-7----------5----------7----------------------|

Verse-
eb|-------------------------|
Bb|-------------------------|
Gb|--7---6----4-------------|
Db|--7---7----4----5--------|
Ab|--5---4----2----5--------|
Eb|----------------3--------|

eb|-------------------------|
Bb|-------------------------|
Gb|--7---6----4-------------|
Db|--7---7----4----5--------|
Ab|--5---4----2----5--------|
Eb|----------------3--------|

[ Tab from: http://www.guitartabs.cc/tabs/b/box_car_racer/watch_the_world_tab_ver_7.html ]
eb|----------------------------------------------|
Bb|----------------------------------------------|
Gb|-7----7/9---7-----7/9-------11-----6---6/7----|
Db|-7----7/9---7-----7/9--3----11-----6---6/7----|
Ab|-5----5/7---5-----5/7--5-----9-----4---4/5----|
Eb|-7----------5----------7----------------------|

eb|----------------------------------------------|
Bb|----------------------------------------------|
Gb|-7----7/9---7-----7/9-------11-----6---6/7----|
Db|-7----7/9---7-----7/9--3----11-----6---6/7----|
Ab|-5----5/7---5-----5/7--5-----9-----4---4/5----|
Eb|-7----------5----------7----------------------|

Verse-
eb|-------------------------|
Bb|-------------------------|
Gb|--7---6----4-------------|
Db|--7---7----4----5--------|
Ab|--5---4----2----5--------|
Eb|----------------3--------|

eb|-------------------------|
Bb|-------------------------|
Gb|--7---6----4-------------|
Db|--7---7----4----5--------|
Ab|--5---4----2----5--------|
Eb|----------------3--------|

eb|----------------------------------------------|
Bb|----------------------------------------------|
Gb|-7----7/9---7-----7/9-------11-----6---6/7----|
Db|-7----7/9---7-----7/9--3----11-----6---6/7----|
Ab|-5----5/7---5-----5/7--5-----9-----4---4/5----|
Eb|-7----------5----------7----------------------|

eb|-------------------------------------------------|
Bb|-------------------------------------------------|
Gb|-7----7/9---7-----7/9-------11-----6-------------|
Db|-7----7/9---7-----7/9--3----11-----6----4----45--|
Ab|-5----5/7---5-----5/7--5-----9-----4----5----55--|
Eb|-7----------5----------7----------------2----03--|

Thats basicly it umm ill update it again when more is set ummm yeah just figure out the
strum time as u sing it... Its a great song 2 just sit n jam wit but if any questions
please do msg me at hurley_freak182@hotmail.com..
Comments