Box Car Racer - Watch The World Chords & Tabs

 

Watch The World Chords & Tabs

Box Car Racer Chords & Tabs

Version: 6 Type: Tab 0 ratings
1 star 2 stars 3 stars 4 stars 5 stars
comments

Watch The World Tab

#----------------------------------PLEASE NOTE--------------------------------#
#This file is the author's own work and represents their interpretation of the#
#song. You may only use this file for private study, scholarship, or research.#
#-----------------------------------------------------------------------------#
#-- File created with Instab - http://www.pconline.com/~smcarey/instab.html --#
#-----------------------------------------------------------------------------#

Author/Artist: box car racer
Title: watch the world
Transcribed by: paul
Email: aint_life_a_bitc_h@hotmail.com

this song is one the best on the album but quite weird to tab.
i have added the intro as to play
on one guitar but beware it can sound really
muddy and too thick this way
(then again it may not)just good luck.

-|--------------|x3---------------|-------------------------|-----------------
-|--------------|-----------------|-------------------------|-----------------
-|-4-----4-6--6-|----8-x-4-x-3-4--|-------------------------|-----------------
-|-x-x8--x-x--x-|----x-x-x-x-x-x--|------------------2------|-----------------
-|-2-----2/4--4-|----6-x-2-x-1-2--|---2--x10--2-x10--2-x10--|-----------------
-|--------------|-----------------|---4-------2------0------|-----------------
           guitar 1 intro                             guitar 2                
[ Tab from: http://www.guitartabs.cc/tabs/b/box_car_racer/watch_the_world_tab_ver_6.html ]
-|-------------------------------------------------------------|--------------
-|-------------------------------------------------------------|--------------
-|-4-----4-/-6-----4------4/-6---4-----4/-6---8-x-6-x-3333/-4--|--------------
-|-x-x8--x-/-x-----x--x8--x/-x---x-x8--x/-x---x-x-x-x-xxxx/-x--|--------------
-|-2-----2/--4-----2------2/-4---2-----2/-4---6-x-4-x-1111/-2--|--------------
-|-4---------------2-------------0-----------------------------|--------------
   (or as 1)                                                                  

-|--------|--------------------|------------|--or do the verse as------2--!-----
-|-----7--|--------------------|------------|------------------------0----!-----
-|-4-4----|--------------------|------------|----------------------4------!----
-|--------|--------------------|------------|-----------------------------!----
-|--------|--222---------------|------------|-----------------------------!----
-|--------|-------222-444--000-|-7brbrbrbrbr|-----------------------------!----
  gtr1        gtr2 (trust me )     (at the end of the verse)               

-|--------------------------------------------------------|-------|-----------
-|--------------------------------------------------------|-----7-|-----------
-|-444444444444--444444444444--444444444444444444444444---|-4-4---|-----------
-|-xxxxxxxxxxxx--xxxxxxxxxxxx--xxxxxxxxxxxxxxxxxxxxxxxx---|-------|-----------
-|-222222222222--222222222222--222222222222222222222222---|-------|-----------
-|---------------444444444444--222222222222222222222222---|-------|-----------
   singing chorus     (if we cant....)                                                       

-|-------------------------|---------------|-----------------|-----------|----
-|-------------------------|---------------|---------2-------|-----------|----
-|-4-----------8-------9---|---------------|--4---4----4-----|-----------|----
-|-4-x5--6-----8-x4----x-x8|--9-----9-x8---|----4--------4---|---2-------|----
-|-2-----6-x6--6-------7---|--x-x8--7------|-----------------|---2-------|----
-|-------4-----------------|--7------------|-----------------|---0-------|----
   heavy bit                    middle        gtr 2            end on
Comments