Box Car Racer - Watch The World Chords & Tabs

 

Watch The World Chords & Tabs

Box Car Racer Chords & Tabs

Version: 5 Type: Tab 0 ratings
1 star 2 stars 3 stars 4 stars 5 stars
comments

Watch The World Tab

   
Watch The World By BOXCARRACER
Tuning is standard: E b g d a E



Intro:-
E----------------------------------------------
b----------------------------------------------
g-44444444-6-44444444-6-44444444-6-8-4-33333---
d-xxxxxxxx-x-xxxxxxxx-x-xxxxxxxx-x-x-x-xxxxx--- x2
a-22222222-4-22222222-4-22222222-4-6-2-11111---
e-44444444---22222222---00000000---------------

Verse: Guitar 1, repeat throughout verse ( W/out dist.)
E-----2-----------
b---0-------------
g-4---------------
d-----------------
a-----------------
e-----------------

Verse: Guitar 2, repeat throughout verse ( slight dist.)
E----------------------
b----------------------
g---4-----3------------
d--4-----4------6----2- Or u can play these as power chords 
a-2-----1------6----2--
e-------------4----0---
[ Tab from: http://www.guitartabs.cc/tabs/b/box_car_racer/watch_the_world_tab_ver_5.html ]
Chorus: ( If we can can...) x3
E----------------------------------
b----------------------------------
g-4444444-444444444-4444444444444--
d-xxxxxxx-444444444-4444444444444--
a-2222222-xxxxxxxxx-xxxxxxxxxxxxx--
e---------444444444-2222222222222--

At the end of the first chorus distorion sets in
E----------------
b----------------
g-8888------99--- 
d-8888-6666-99--- x2
a-6666-6666-77---
e------4444------

Then the acoustic solo
E----------------
b-------2--------
g-4---4---4------ 
d---4------------ x4?
a----------------
e----------------

Chorus: x4
E----------------------------------
b----------------------------------
g-4444444-444444444-4444444444444--
d-xxxxxxx-444444444-4444444444444--
a-2222222-xxxxxxxxx-xxxxxxxxxxxxx--
e---------444444444-2222222222222--

Outro: 'Me and you..'
E----------------------------------------------
b----------------------------------------------
g-44444444-6-44444444-6-44444444-6-8-4-33333---
d-xxxxxxxx-x-xxxxxxxx-x-xxxxxxxx-x-x-x-xxxxx--- x2 end on a B chord
a-22222222-4-22222222-4-22222222-4-6-2-11111---
e-44444444---22222222---00000000---------------
Comments