Box Car Racer - Watch The World Chords & Tabs

 

Watch The World Chords & Tabs

Box Car Racer Chords & Tabs

Version: 4 Type: Tab 0 ratings
1 star 2 stars 3 stars 4 stars 5 stars
comments

Watch The World Tab

***************************
* Artist: BOXCAR RACER    *
* Song: "Watch The World" *
* Album: Boxcar Racer     *
***************************
_______________________________________________________________________

Intro [Guitar 1]
1 |-------------------------------------------------------------------|
2 |-------------------------------------------------------------------|
3 |-4444444444-6666-4444444444-6666-4444444444-888-444-333333-444-----|
4 |-xxxxxxxxxx-6666-xxxxxxxxxx-6666-xxxxxxxxxx-xxx-xxx-xxxxxx-xxx-----| x2
5 |-2222222222-4444-2222222222-4444-2222222222-666-222-111111-222-----|
6 |-------------------------------------------------------------------|

Intro [Guitar 2]
1 |------------------------------------------|
2 |------------------------------------------| 
3 |-44444444---------------------------------| x2
4 |-xxxxxxxx--66666666--4444444444444444-----|
5 |-22222222--xxxxxxxx--xxxxxxxxxxxxxxxx-----|
6 |-----------44444444--2222222222222222-----|



Verse [Guitar 1]
1 |----------------------------------|
2 |----------------------------------|
3 |-444---333------------------------| X 4
4 |-xxx---xxx---666---444------------|
5 |-222---111---xxx---xxx------------|
6 |-------------444---666------------|

Verse [Guitar 2]
1 |-----2-----|
2 |-0---------| 
3 |-----------|  x16
4 |-----------|  
5 |-----------| 
6 |-----------|


[ Tab from: http://www.guitartabs.cc/tabs/b/box_car_racer/watch_the_world_tab_ver_4.html ]
Chorus [Guitar 1]
1 |--------|
2 |--------|
3 |-4------|  Repeat that chord all chorus
4 |-x------|
5 |-2------|
6 |--------|

Chorus [Guitar 2]
1 |-----------------------------------------|
2 |-----------------------------------------|
3 |-44444444--------------------------------| x4
4 |-xxxxxxxx-66666666-4444444444444444------|
5 |-22222222-xxxxxxxx-xxxxxxxxxxxxxxxx------|
6 |----------44444444-2222222222222222------|



Interlude 1 [Guitar 1]
1 |-------------------------------|
2 |-------------------------------|
3 |-888-444-333-4444-44444444-----|
4 |-888-444-333-4444-xxxxxxxx-----| x2
5 |-666-222-111-2222-22222222-----|
6 |-------------------------------|

Interlude 1 [Guitar 2]
1 |-------------------------------|
2 |-------------------------------|
3 |-888-888-888-8888-88888888-----|
4 |-888-888-888-8888-88888888-----| x2
5 |-666-666-666-6666-66666666-----|
6 |-------------------------------|



Interlude 2 [Guitar 1]
1 |-----------------|
2 |-----------------|
3 |-4----4---6-4----| x8
4 |----4---------4--|
5 |-----------------|
6 |-----------------|

Interlude 2 [Guitar 2]
1 |------------------------------|
2 |------------------------------|
3 |-444444444444-666666666666----| x4
4 |-xxxxxxxxxxxx-xxxxxxxxxxxx----|
5 |-222222222222-444444444444----|
6 |------------------------------|

*SONG ORDER*
    Intro x2
    Verse 
    Intro x1
    Verse
    Chorus
    Interlude 1
    Interlude 2
    Chorus
*END*
_______________________________________________________________________
I think it's right.
Any comment mail me to:
jaca146@latinmail.com   J. C. A.
Comments