Box Car Racer - Watch The World Chords & Tabs

 

Watch The World Chords & Tabs

Box Car Racer Chords & Tabs

Version: 2 Type: Tab 0 ratings
1 star 2 stars 3 stars 4 stars 5 stars
comments

Watch The World Tab

Box Car Racer
Watch the World
Tabbed by Vince a.k.a
    ____                 __  __  __  __  _  ____      _  _
   / __ \ __  __ __     / / / / / / / / (_)/ _  \ /| / \/ \
  / ____// / / // /___ / /_/_/ / /_/_/ / // / / /  | \_/  /
 / /    / /_/ // / / // /\ \  / /\ \  / // /_/ /   | / \ /
/_/    /_____//_/ /_//_/  \_\/_/  \_\/_//_____/   _|_\_//__ 

^	=	accented downstroke
v	=	accented upstroke
~	=	let ring	
X	=	muffle string
Intro(2X)
e|-^-----v-----^---------------------------|
B|-you can play this string open if you want a fuller sound
G|-4-4-4-4-4-4-4-4-4-4-4-4-4/6-6-----------|
D|-X-X-X-X-X-X-X-X-X-X-X-X-X-X-X-----------|
A|-2-2-2-2-2-2-2-2-2-2-2-2-2/4-4-----------|
E|-4-----4-----4---------------------------|

e|-^-----v-----^---------------------------|
B|-----------------------------------------|
G|-4-4-4-4-4-4-4-4-4-4-4-4-4/6-6-----------|
D|-X-X-X-X-X-X-X-X-X-X-X-X-X-X-X-----------|
A|-2-2-2-2-2-2-2-2-2-2-2-2-2/4-4-----------|
E|-2-----2-----2---------------------------|

e|-^-----v-----^---------------------------|
B|-----------------------------------------|
G|-4-4-4-4-4-4-4-4-4-4-4-4-4/6-6-----------|
D|-X-X-X-X-X-X-X-X-X-X-X-X-X-X-X-----------|
A|-2-2-2-2-2-2-2-2-2-2-2-2-2/4-4-----------|
E|-0-----0-----0---------------------------|

e|-^-----v-----^-------------v-------------|
B|-----------------------------------------|
G|-8-8-8\4-4-4-3-3-3-3-3-3-3/4-4-----------|
D|-X-X-X-X-X-X-X-X-X-X-X-X-X-X-X-----------|
A|-6-6-6\2-2-2-1-1-1-1-1-1-1/2-2-----------|
E|-----------------------------------------|

Verse(X4)
  Guitar1 
e|---------2~~~~~~---------2~~~~~~~|  
B|-----0~~~~~~---------0~~~~~~~~---|
G|-4~~~~~~~--------4~~~~~~~~-------|
D|---------------------------------|
A|---------------------------------|
E|---------------------------------|
  Guitar2
e|---------------------------------|
B|---------------------------------|
G|---------------------------------|
D|-4---4---4-------4---4---4-------|
A|-2---2---2-------1---1---1-------|
E|---------------------------------|
  Guitar1 
e|---------2~~~~~~---------2~~~~~~~|  
B|-----0~~~~~~---------0~~~~~~~~---|
G|-4~~~~~~~--------4~~~~~~~~-------|
D|---------------------------------|
A|---------------------------------|
E|---------------------------------|
  Guitar2
e|---------------------------------|
B|---------------------------------|
G|---------------------------------|
D|---------------------------------|
A|-6---6---6-------2---2---2-------|
E|-4---4---4-------0---0---0-------|

Then play the Intro again (2X)
Then play the Verse again (4X)
[ Tab from: http://www.guitartabs.cc/tabs/b/box_car_racer/watch_the_world_tab_ver_2.html ]
Now play the Chorus(4X)
e|-^-----v-----^-----v-----^---------------|
B|-----------------------------------------|
G|-4-4-4-4-4-4-4-4-4-4-4-4-4-4-4-4---------|
D|-X-X-X-X-X-X-X-X-X-X-X-X-X-X-X-x---------|
A|-2-2-2-2-2-2-2-2-2-2-2-2-2-2-2-2---------|
E|-----------------------------------------|

e|-^-----v-----^-----v-----^---------------|
B|-----------------------------------------|
G|-4-4-4-4-4-4-4-4-4-4-4-4-4-4-4-4---------|
D|-X-X-X-X-X-X-X-X-X-X-X-X-X-X-X-x---------|
A|-2-2-2-2-2-2-2-2-2-2-2-2-2-2-2-2---------|
E|-4-----4-----4---------------------------|

e|-^-----v-----^-----v-----^---------------|
B|-----------------------------------------|
G|-4-4-4-4-4-4-4-4-4-4-4-4-4-4-4-4---------|
D|-X-X-X-X-X-X-X-X-X-X-X-X-X-X-X-x---------|
A|-2-2-2-2-2-2-2-2-2-2-2-2-2-2-2-2---------|
E|-2-----2-----2---------------------------|

e|-^-----v-----^-----v-----^---------------|
B|-----------------------------------------|
G|-4-4-4-4-4-4-4-4-4-4-4-4-4-4-4-4---------|
D|-X-X-X-X-X-X-X-X-X-X-X-X-X-X-X-x---------|
A|-2-2-2-2-2-2-2-2-2-2-2-2-2-2-2-2---------|
E|-2-----2-----2---------------------------|

Interlude(2X)
e|-^-----v-----^-----v-----^-----|-----------------|
B|-------------------------------|-----------------|
G|-8-8-8-8-8-8-8-8-8-------8-8-8-|-9-9-9-9-9-9-9-9-|
D|-8-8-8-8-8-8-8-8-8-6-6-6-8-8-8-|-X-X-X-X-X-X-X-X-|
A|-6-6-6-6-6-6-6-6-6-6-6-6-6-6-6-|-7-7-7-7-7-7-7-7-|
E|-------------------4-4-4-------|-----------------|        



Bridge(4X)
  Guitar1(aucoustic)
e|---------------------------------|
B|---------------------2-----------|
G|-4-----------4-----------4-------|
D|---------4-------------------4---|
A|---------------------------------|
E|---------------------------------|
  Guitar2                 
e|---------------------------------|
B|---------------------------------|
G|-4---4-4-4-4-4---4-4-4-4-4---4-4-|
D|-1---1-1-1-1-1---1-1-1-1-1---1-1-|
A|---------------------------------|
E|---------------------------------|
  Guitar1(aucoustic)    
e|---------------------------------|
B|---------------------2-----------|
G|-4-----------4-----------4-------|
D|---------4-------------------4---|
A|---------------------------------|
E|---------------------------------|
  Guitar2                    
e|---------------------------------|
B|---------------------------------|
G|-4---4-4-4-4-4---4-4-4-4-4---4-4-|
D|-2---2-2-2-2-2---2-2-2-2-2---2-2-|
A|---------------------------------|
E|---------------------------------|

Then play the Chorus(4X)
Then play the Intro (2X)

At the end just kind of smack the strings with your hand
It sounds close enough
e|-0~~~~~~~~~~~~~~~~~~-------|
B|-0~~~~~~~~~~~~~~~~~~~~~~~--|
G|-0~~~~~~~~~~~~~~~~~~~~~----|
D|-2~~~~~~~~~~~~~~~~~~~~-----|
A|-2~~~~~~~~~~~~~~~~~~~~~~---|
E|-0~~~~~~~~~~~~~~~~~~~~~~---|
Comments