Box Car Racer - Watch The World Chords & Tabs

 

Watch The World Chords & Tabs

Box Car Racer Chords & Tabs

Version: 1 Type: Tab 0 ratings
1 star 2 stars 3 stars 4 stars 5 stars
comments

Watch The World Tab

Artist: Boxcar Racer
Song: Watch the World
Tabber: Scott Allinder - Blink182house@aol.com
            www.geocities.com/blink182house

e|-------------------------------------------
B|-------------------------------------------
G|-444444-6666--------6666-------------------
D|-444444-xxxx-444444-xxxx-22222222-1--------      2X
A|-222222-4444-444444-4444-22222222----2--1--
E|-------------222222------00000000----------


e|--------2---
B|-0----------
G|------------             16X
D|------------
A|---2--------
E|------------


e|--------------------------------------------
B|--------------------------------------------
G|-444444-6666--------6666--------------------
D|-444444-xxxx-444444-xxxx-22222222-1---------      
A|-222222-4444-444444-4444-22222222----2--1---
E|-------------222222------00000000-----------


e|--------2---
B|-0----------
G|------------             16X
D|------------
A|---2--------
E|------------

[ Tab from: http://www.guitartabs.cc/tabs/b/box_car_racer/watch_the_world_tab.html ]
e|---------------------------------------
B|---------------------------------------
G|-44444444------------------------------
D|-44444444-66666666-4444444444444444----      4X
A|-22222222-66666666-4444444444444444----
E|----------44444444-2222222222222222----


e|-------------------------
B|-------------------------
G|-4444444---44--444444444-
D|-4444444-6-44--xxxxxxxxx-      2X
A|-2222222-6-22--222222222-
E|---------4---------------


e|---------------------
B|-----------2--0------
G|-4----4--------------
D|----4--------------4-        8X
A|---------------------
E|---------------------


e|-------------------------------------
B|-------------------------------------
G|-44444444----------------------------
D|-44444444-66666666-4444444444444444--        4X
A|-22222222-66666666-4444444444444444--
E|----------44444444-2222222222222222--


e|-------------------------------------------
B|-------------------------------------------
G|-444444-6666--------6666-------------------
D|-444444-xxxx-444444-xxxx-22222222-1--------      2X
A|-222222-4444-444444-4444-22222222----2--1--
E|-------------222222------00000000----------
Comments