Box Car Racer - Watch The World Acoustic Chords & Tabs

 

Watch The World Acoustic Chords & Tabs

Box Car Racer Chords & Tabs

Version: 1 Type: Tab 0 ratings
1 star 2 stars 3 stars 4 stars 5 stars
comments

Watch The World Acoustic Tab

   
Played by: Tom Delonge for BoxCar Racer
Song: Watch The World Acoustic
Tabbed by: Luke Whiteman aka. w00ts!te
E-mail: crazygunman@gmail.com
Tuning: (Eb,Ab,Db,Gb,Bb,Eb)

 /  slide up
 \  slide down
 h  hammer-on
 p  pull-off
 ~  vibrato
 +  harmonic
 x  Mute note

Intro
eb|-0--0--0--0--0--0--0--0--0--0--0--0--0--0--0--|
Bb|-0--0--0--0--0--0--0--0--0--0--0--0--0--0--0--|
Gb|-11-11-11-9--9--9--7--7--7--9--9--9--6--6--6--|    x2
Db|-0--0--0--0--0--0--0--0--0--0--0--0--0--0--0--|
Ab|-9--9--9--7--7--7--5--5--5--7--7--7--4--4--4--|
Eb|----------------------------------------------|
Verse

eb|---------------------------------------------------------------|
Bb|---------------------------------------------------------------|
Gb|-7-7-7-7-7-7----6-6-6-6-6-6----4-4-4-4-4-4---------------------|
Db|-7-7-7-7-7-7----7-7-7-7-7-7----4-4-4-4-4-4--------5-5-5-5-5-5--|
Ab|-5-5-5-5-5-5----4-4-4-4-4-4----2-2-2-2-2-2--------5-5-5-5-5-5--|
Eb|--------------------------------------------------3-3-3-3-3-3--|    
I saw this man get rid of hunger and soap operas, too

eb|-------------------------------------------------------------------|
Bb|-------------------------------------------------------------------|
Gb|-7-7-7-7-7-7-------6-6-6-6-6-6-----4-4-4-4-4-4---------------------|
Db|-7-7-7-7-7-7-------7-7-7-7-7-7-----4-4-4-4-4-4--------5-5-5-5-5-5--|
Ab|-5-5-5-5-5-5-------4-4-4-4-4-4-----2-2-2-2-2-2--------5-5-5-5-5-5--|
Eb|------------------------------------------------------3-3-3-3-3-3--|    
I saw this field that grew perfection full of things you do
[ Tab from: http://www.guitartabs.cc/tabs/b/box_car_racer/watch_the_world_acoustic_tab.html ]
eb|---------------------------------------------------------------|
Bb|---------------------------------------------------------------|
Gb|-7-7-7-7-7--6-6-6-6-6-6----------4-4-4-4-4-4-------------------|
Db|-7-7-7-7-7--7-7-7-7-7-7----------4-4-4-4-4-4------5-5-5-5-5-5--|
Ab|-5-5-5-5-5--4-4-4-4-4-4----------2-2-2-2-2-2------5-5-5-5-5-5--|
Eb|--------------------------------------------------3-3-3-3-3-3--|    
I saw this box dispose of heartache and cure cancer, too

eb|-------------------------------------------------------------------|
Bb|-------------------------------------------------------------------|
Gb|-7-7-7-7-7---6-6-6-6-6-6------4-4-4-4-4-4--------------------------|
Db|-7-7-7-7-7---7-7-7-7-7-7------4-4-4-4-4-4-------------5-5-5-5-5-5--|
Ab|-5-5-5-5-5---4-4-4-4-4-4------2-2-2-2-2-2-------------5-5-5-5-5-5--|
Eb|------------------------------------------------------3-3-3-3-3-3--|    
When I awoke, I sat there hoping that this is what we'll do

Pre-Chorus

eb|------------------------------------------0--0----------|
Bb|------------------------------------------0--0----------|
Gb|-7-7-7-7-7/9-9--7-7-7-7-7/9-9--7-7-7-7-7--0--0---6-6/7--|
Db|-7-7-7-7-7/9-9--7-7-7-7-7/9-9--0-0-0-0-0--11-11--0-0/0--|
Ab|-5-5-5-5-5/7-7--5-5-5-5-5/7-7--5-5-5-5-5--0--0---4-4/5--|
Eb|-7-7-7-7-7/-----5-5-5-5-5/-----3-3-3-3-3--9--9---5-5/---|

eb|-------------------------------------------------|
Bb|-------------------------------------------------|
Gb|-7-7-7-7-7/9-9--7-7-7-7-7/9-9--7-7-7-7-7--6-6----|
Db|-7-7-7-7-7/9-9--7-7-7-7-7/9-9--0-0-0-0-0--7-7----|
Ab|-5-5-5-5-5/7-7--5-5-5-5-5/7-7--5-5-5-5-5--4-4----|
Eb|-7-7-7-7-7/-----5-5-5-5-5/-----3-3-3-3-3--5-5----|

Ending
eb|----|
Bb|----|
Gb|-7--|
Db|-0--|
Ab|-5--|
Eb|-3--|
Comments