Box Car Racer - Tiny Voices Chords & Tabs

 

Tiny Voices Chords & Tabs

Box Car Racer Chords & Tabs

Version: 4 Type: Tab 0 ratings
1 star 2 stars 3 stars 4 stars 5 stars
comments

Tiny Voices Tab

BoxcarRacer - Tiny Voices 
Tuning(EADGBE)

Intro/ interlude

   p.m._
----------------------------------------
----------------------------------------
---------13-13-x-7-7-7-7/6-6------------
-7-------x--x--x-7-7-7-7/6-6------------
-7-------11-11-x-5-5-5-5/4-4------------
-5-5-5-5--------------------------------

Verse

----------------------------------------
----------------------------------------
----------------------------------------
-7----------------straight flat picking,
-x----------------come in 1/4 beat late.
-5--------------------------------------

Chorus

----------------------------------------
----------------------------------------
-------------8-8-8----------------------
-2-2-2-2-2-2-x-x-x-2-2-2-2-2-2-2--------
-2-2-2-2-2-2-6-6-6-2-2-2-2-2-2-2--------
-0-0-0-0-0-0-------0-0-0-0-0-0-0--------

----------------------------------------
----------------------------------------
----------------------------------------
-6-6-6-6-6-6-6-6-7-7-7-7-7-7-7-7--------
-6-6-6-6-6-6-6-6-7-7-7-7-7-7-7-7--------
-4-4-4-4-4-4-4-4-5-5-5-5-5-5-5-5--------
[ Tab from: http://www.guitartabs.cc/tabs/b/box_car_racer/tiny_voices_tab_ver_4.html ]
"Every body will be..."
            2x
----------------------------------------
----------------------------------------
----------------------------------------
----------------------------------------
----------------------------------------
-5-5-5-5-5-5-5-5-5-5-5-5-5-5-5-5--------
Use harmonics and lighty palm mute

Interlude

Verse

Chorus

Bridge

----------------------------------------
----------------------------------------
----------------------------------------
--2--2-2--4--4-2------------------------
-2-22-2-22-22-2-2-Repeat as many times--
------------------as neccesary----------

"Tiny Voices, I Hear Voices..."

Let Ring Through Out___________
----------------------------------------
----------------------------------------
----------------------------------------
----------------------------------------
----------------------------------------
-0------4------5------5-----------------
Each note is about a 1/4 beat off

Bridge

Chorus 2x

It's my favorite song from them and my 
friend that knows Tom tought me how to 
play it.  All the tabs for this song are
just a little bit off.  But this one is
100% right!!!
Tabbed by Robert Combs
Comments