Box Car Racer - Tiny Voices Chords & Tabs

 

Tiny Voices Chords & Tabs

Box Car Racer Chords & Tabs

Version: 3 Type: Tab 0 ratings
1 star 2 stars 3 stars 4 stars 5 stars
comments

Tiny Voices Tab

Wasup everyone, this is my first tab, I tried really hard to make it close to perfect, 
it soounds right. So if have anything to just e-mail me. OldSkoolPlaya41@cs.com
Just Play this in the order.

e|---------------------------------------------|
B|---------------------------------------------|x4
G|-------------13-13--7-7-9-9-7-7--------------|
D|---7---------x--x---x-x-x-x-x-x--------------|
A|---7---------11-11--5-5-7-7-5-5--------------|
E|---5-5-5-5-----------------------------------|
       * * *

e|-----------------|
B|-----------------|listen to the song to find out how many
G|-----------------|times to play it.
D|-----7-----------|
A|-----x-----------|
E|-----5-----------|

e|-------------------------------------------------------|
B|-------------------------------------------------------|x2
G|-----------7-7-----------------------------------------|
D|-2-2-2-2---x-x---2-2-2-2---6-6-6-6-6---7-7-7-7-7-------|
A|-2-2-2-2---5-5---2-2-2-2---6-6-6-6-6---7-7-7-7-7-------|
E|-0-0-0-0---------0-0-0-0---4-4-4-4-4---5-5-5-5-5-------|

e|----------------------------------|
B|----------------------------------|listen to song to find
G|----------------------------------|how many times to play 
D|----------------------------------|it.
A|----------------------------------|
E|--5-5-5-5-5-5-5-5-5-5-5-5---------|
    * * * * * * * * * * * *

e|---------------------------------------------|
B|---------------------------------------------|x2
G|-------------13-13--7-7-9-9-7-7--------------|
D|---7---------x--x---x-x-x-x-x-x--------------|         
A|---7---------11-11--5-5-7-7-5-5--------------|
E|---5-5-5-5-----------------------------------|
       * * *

e|-----------------|
B|-----------------|listen to the song to find out how many
G|-----------------|times to play it.
D|-----7-----------|
A|-----x-----------|
E|-----5-----------|
[ Tab from: http://www.guitartabs.cc/tabs/b/box_car_racer/tiny_voices_tab_ver_3.html ]
e|-------------------------------------------------------|
B|-------------------------------------------------------|x2
G|-----------7-7-----------------------------------------|
D|-2-2-2-2---x-x---2-2-2-2---6-6-6-6-6---7-7-7-7-7-------|
A|-2-2-2-2---5-5---2-2-2-2---6-6-6-6-6---7-7-7-7-7-------|
E|-0-0-0-0---------0-0-0-0---4-4-4-4-4---5-5-5-5-5-------|

e|----------------------------------|
B|----------------------------------|listen to song to find
G|----------------------------------|how many times to play 
D|----------------------------------|it.
A|----------------------------------|
E|--5-5-5-5-5-5-5-5-5-5-5-5---------|
    * * * * * * * * * * * *
e|-------------------|
B|-------------------|
G|-------------------|x16
D|-----2---2---2-----|
A|-2-2---2---2-------|
E|-------------------|


e|---------------------------------------------|
B|---------------------------------------------|x2
G|---------------------------------------------|
D|---------------------------------------------|
A|---------------------------------------------|
E|--0------4------5------5---------------------|

e|-------------------|
B|-------------------|
G|-------------------|x16
D|-----2---2---2-----|
A|-2-2---2---2-------|
E|-------------------|


e|-------------------------------------------------------|
B|-------------------------------------------------------|x4
G|-----------7-7-----------------------------------------|
D|-2-2-2-2---x-x---2-2-2-2---6-6-6-6-6---7-7-7-7-7-------|
A|-2-2-2-2---5-5---2-2-2-2---6-6-6-6-6---7-7-7-7-7-------|
E|-0-0-0-0---------0-0-0-0---4-4-4-4-4---5-5-5-5-5-------|


e|----------------------------------|
B|----------------------------------|play to the end!!
G|----------------------------------| 
D|----------------------------------|
A|----------------------------------|
E|--5-5-5-5-5-5-5-5-5-5-5-5---------|
    * * * * * * * * * * * *


Alright guys, thats it. I hope u like it. the cd kicks ass and so does the song. 
So KEEP ON ROCKIN'.!!!!!!!!
Comments