Box Car Racer - Tiny Voices Chords & Tabs

 

Tiny Voices Chords & Tabs

Box Car Racer Chords & Tabs

Version: 1 Type: Tab 0 ratings
1 star 2 stars 3 stars 4 stars 5 stars
comments

Tiny Voices Tab

   
Palm Mute=.....

Intro
e ---------------------
B ---------------------
G -------7-7-7---6-6---
D -7-7-7-7-7-7-\-6-6-2-
A -x-x-x-5-5-5--\4-4-0-
E -5-5-5---------------

Verse		  			 
e ---------------|
B ---------------|
G ---------------|
D -2-2-2-2-2-2-2-|
A -0-0-0-0-0-0-0-|
E ---------------|

[ Tab from: http://www.guitartabs.cc/tabs/b/box_car_racer/tiny_voices_tab.html ]
Chorus
e ---------------------------------------------------------
B ---------------------------------------------------------
G -----------9-9-9-9-9-------------------------------------
D -2-2-2-2-2-9-9-9-9-9-2-2-2-2-2-2-6-6-6-6-6-7-7-7-7-7-7-7-
A -2-2-2-2-2-7-7-7-7-7-2-2-2-2-2-2-6-6-6-6-6-7-7-7-7-7-7-7-
E -0-0-0-0-0-----------0-0-0-0-0-0-4-4-4-4-4-5-5-5-5-5-5-5-
					     ...........	  
Bridge (clean)
e -------------------------------------------------------
B -------------------------------------------------------
G -------------------------------------------------------
D ------2-----2---2-----4-----4---4----------------------
A --2-2---2-2---2---2-2---2-2---2------------------------
E --------------------------------------4-5-5-0-4-5-5----
Comments