Box Car Racer - There Is Chords & Tabs

 

There Is Chords & Tabs

Box Car Racer Chords & Tabs

Version: 11 Type: Tab 0 ratings
1 star 2 stars 3 stars 4 stars 5 stars
comments

There Is Tab

Estimados amigos(as) guitarrístas:
Le garantizo el 100% de los sonido y la cantidad de los traste en ésta canción.
Favor de aplicar todas las técnicas que se hace notar debajo de los trastes si
ésta la posee, para así no eliminar los elementos que con lleva éste tablero.
Cualquier corrección o error, favor de hacérmelo saber a través de ésta dirección
de correo electrónico, team_madhouse_tm@hotmail.com.


LEYENDA:
  
(x)  =  Mute Breve (Palma Izquierda)
(v)  =  Vibrato  

ORDEN:

( Por favor, siga la secuencia del tablero; están ordenados como es la canción ).

MODO:

Las posiciones de las cuerdas en la guitarra de modo Estándar; (e)(B)(G)(D)(A)(E).


Intro  A:  (  Gtr. 1  )
e ------------------------------------------------------------------------------
B --x-xx-x-xxx-x-xx-x-xxx-x-xx-x-xxx-xx-----------------------------------------
G --8-88-8-888-6-66-6-666-4-44-4-444-66-xx-x------------------------------------
D --x-xx-x-xxx-x-xx-x-xxx-x-xx-x-xxx-xx-88-8------------------------------------
A --6-66-6-666-4-44-4-444-2-22-2-222-44-xx-x------------------------------------
E --------------------------------------66-6----------------------------------X2

Interlude  A:  (  Gtr. 1  )
e ------------------------------------------------------------------------------
B ------------------------------------------------------------------------------
G --4v--------------------------------------------------------------------------
D --4v--------------------------------------------------------------------------
A --2v--------------------------------------------------------------------------
E ----------------------------------------------------------------------------X1

Intro  B:  (  Gtr. 2  )                               
e ------------------------------------------------------------------------------
B --x-xx-x-xxx------------------------------------------------------------------
G --4-44-4-444------------------------------------------------------------------
D --x-xx-x-xxx------------------------------------------------------------------
A --2-22-2-222------------------------------------------------------------------
E ----------------------------------------------------------------------------X8

Riff  A:  (  Gtr. 1  )  (  Intro  B  )  X16
e ------------------------------------------------------------------------------
B --x-xx-x-xxx------------------------------------------------------------------
G --4-44-4-444-x-xx-x-xxx-x-xx-x-xxx-x-xx-x-xxx---------------------------------
D --x-xx-x-xxx-4-44-4-444-6-66-6-666-2-22-2-222---------------------------------
A --2-22-2-222-x-xx-x-xxx-x-xx-x-xxx-x-xx-x-xxx---------------------------------
E -------------2-22-2-222-4-44-4-444-0-00-0-000-------------------------------X4
[ Tab from: http://www.guitartabs.cc/tabs/b/box_car_racer/there_is_tab_ver_11.html ]
Interlude  B:  (  Gtr. 2  )  
e ------------------------------------------------------------------------------
B --0-020-----------------------------------------------------------------------
G ---4--------------------------------------------------------------------------
D ------------------------------------------------------------------------------
A ------------------------------------------------------------------------------
E ----------------------------------------------------------------------------X8

Riff  B:  (  Gtr. 1  )  
e ------------------------------------------------------------------------------
B --x-xx-x-xxx-x-xx-x-xxx-------------------------------------------------------
G --4-44-4-444-6-66-6-666-------------------------------------------------------
D --x-xx-x-xxx-x-xx-x-xxx-------------------------------------------------------
A --2-22-2-222-4-44-4-444-------------------------------------------------------
E ----------------------------------------------------------------------------X4

(  Intro  A  )  X1  (  Intro  B  )  X4

(  Riff  A  )  X2  (  Intro  B  )  X8

(  Interlude  B  )  (  Riff  B  ) 

Bridge  A:  (  Gtr. 1  )  (  Intro  B  )  X6
e ------------------------------------------------------------------------------
B --x-xx-x-xxx-x-xx-x-xxx-------------------------------------------------------
G --8-88-8-888-9-99-9-999-------------------------------------------------------
D --x-xx-x-xxx-x-xx-x-xxx-------------------------------------------------------
A --6-66-6-666-7-77-7-777-------------------------------------------------------
E ----------------------------------------------------------------------------X3

Bridge  B:  (  Gtr. 1  )  
e ------------------------------------------------------------------------------
B --x-xx-x-xxx-x-xx-x-xxx-------------------------------------------------------
G --8-88-8-888-6-66-6-666-------------------------------------------------------
D --x-xx-x-xxx-x-xx-x-xxx-------------------------------------------------------
A --6-66-6-666-4-44-4-444-------------------------------------------------------
E ----------------------------------------------------------------------------X1

Interlude  C:  (  Gtr. 2  )  
e ------------------------------------------------------------------------------
B --x-xx-x-xxx------------------------------------------------------------------
G --4-44-4-444-x-xx-x-xxx-------------------------------------------------------
D --x-xx-x-xxx-4-44-4-444-------------------------------------------------------
A --2-22-2-222-x-xx-x-xxx-------------------------------------------------------
E -------------2-22-2-222-----------------------------------------------------X1

(  Bridge  B  )  X8  (  Interlude  B  )    

Outro:
e ------------------------------------------------------------------------------
B --x---------------------------------------------------------------------------
G --4v--------------------------------------------------------------------------
D --x---------------------------------------------------------------------------
A --2v--------------------------------------------------------------------------
E ----------------------------------------------------------------------------X1


Bueno, eso es todo.  Les deseo mucha suerte! y que viva el Punk y el Rock!.
O.K.
Comments