Box Car Racer - The End With You Chords & Tabs

 

The End With You Chords & Tabs

Box Car Racer Chords & Tabs

Version: 2 Type: Tab 0 ratings
1 star 2 stars 3 stars 4 stars 5 stars
comments

The End With You Tab

-------------------------------------------------------------------------------
			     The End With You - Boxcar Racer
-------------------------------------------------------------------------------
Tabbed by: Dan-E
Email: big_bad_bro90@hotmail.com

Tuning: EADGBe


Intro:
e|---------------------------------------------------------------------------|
B|---------------------------------------------------------------------------|
G|-6-6-6-6-6-6-6-6-6-6-6-6-6-6-6-6-------------------------------------------|
D|-6-6-6-6-6-6-6-6-6-6-6-6-6-6-6-6-------------------------------------------|
A|-4-4-4-4-4-4-4-4-4-4-4-4-4-4-4-4-------------------------------------------|
E|---------------------------------------------------------------------------|



Verse intro:
e|---------------------------------------------------------------------------|
B|---------------------------------------------------------------------------|
G|---------------------------7-7---------------------------------------------|
D|-5-5-5-6-7-7-7------5-5-5--7-7--5-5----------------------------------------|
A|-5-5-5-6-7-7-7------5-5-5--5-5--5-5----------------------------------------|
E|-3-3-3-4-5-5-5------3-3-3-------3-3----------------------------------------|

Rest of the Verse:
e|---------------------------------------------------------------------------|
B|---------------------------------------------------------------------------|
G|----------------------------7-7--------------------------------------------|
D|-7-7-7-7-7-7-7-7-----5-5-5--7-7--5-5---------------------------------------|
A|-7-7-7-7-7-7-7-7-----5-5-5--5-5--5-5---------------------------------------|
E|-5-5-5-5-5-5-5-5-----3-3-3-------3-3---------------------------------------|


[ Tab from: http://www.guitartabs.cc/tabs/b/box_car_racer/the_end_with_you_tab_ver_2.html ]
Chorus:
e|---------------------------------------------------------------------------|
B|---------------------------------------------------------------------------|
G|-------------------------------------------7777----------------------------|
D|-7777777777777777--7777777777777777--4444--7777----------------------------|
A|-7777777777777777--6666666666666666--4444--5555----------------------------|
E|-5555555555555555--4444444444444444--2222----------------------------------|



Same Verse - Verse intro:
e|---------------------------------------------------------------------------|
B|---------------------------------------------------------------------------|
G|---------------------------7-7---------------------------------------------|
D|-5-5-5-6-7-7-7------5-5-5--7-7--5-5----------------------------------------|
A|-5-5-5-6-7-7-7------5-5-5--5-5--5-5----------------------------------------|
E|-3-3-3-4-5-5-5------3-3-3-------3-3----------------------------------------|

Rest of the Verse:
e|---------------------------------------------------------------------------|
B|---------------------------------------------------------------------------|
G|----------------------------7-7--------------------------------------------|
D|-7-7-7-7-7-7-7-7-----5-5-5--7-7--5-5---------------------------------------|
A|-7-7-7-7-7-7-7-7-----5-5-5--5-5--5-5---------------------------------------|
E|-5-5-5-5-5-5-5-5-----3-3-3-------3-3---------------------------------------|


Bridge:
e|---------------------------------------------------------------------------|
B|---------------------------------------------------------------------------|
G|---------------------------------------------------------------------------|
D|---------------------------------------------------------------------------|
A|------------4-4-4-5-3------let it ring-------------------------------------|
E|-3-3-3-4-5------let it ring------------------------------------------------|

Chorus, Outro = Intro

Have a lot of fun withit. Mail me if you need some help: big_bad_bro90@hotmail.com _______________Enjoy.
===============================================================================
Comments