Box Car Racer - Sorrow Chords & Tabs

 

Sorrow Chords & Tabs

Box Car Racer Chords & Tabs

Version: 5 Type: Tab 0 ratings
1 star 2 stars 3 stars 4 stars 5 stars
comments

Sorrow Tab

   
This song has a few ways to play the intro so I'll give you them
and you can decide for yourself...

Intro/Main Riff
e|----------------|----------------|---------------|
B|----------------|----------------|---------------|
G|----------------|----------------|---------------|Pick one,
D|-0-----2---0----|----------------|-------2---0---|repeat as needed
A|---4-0---0---4--|--5-4-0-7-4-5-4-|-5-4-0---0---4-|
E|----------------|----------------|---------------|

Verse
  "Because I need, you, more...."
e|----------------------------------------------|
B|----------------------------------------------|
G|----------------------------------------------|
D|-7777777777-6666666666-4444444444/6666666666--|Repeat as needed
A|----------------------------------------------|
E|-5555555555-4444444444-2222222222/4444444444--|
  (Tom plays the verse with the gain alittle low)


(Play Main Riff again)
[ Tab from: http://www.guitartabs.cc/tabs/b/box_car_racer/sorrow_tab_ver_5.html ]
Prechorus (heres what everyone forgot to put in there tabs!)
  "Because we moved, to fucking fast.."
e|---------------------------------------------------------------|
B|---------------------------------------------------------------|
G|---------------------------------------------------------------|
D|-66666666-44444444-10101010/1212121212121212-10101010-66666666-|
A|---------------------------------------------------------------|
E|-44444444-22222222-88888888/1010101010101010-88888888-44444444-|

e|---------------------------|
B|---------------------------|
G|---------------------------|
D|-10101010/1212121212121212-|
A|---------------------------|
E|-88888888/1010101010101010-|


Chorus 1 (I'll give you the lyrics over the power chords so you know when
          to play them.. just play the powerchord over and over until
          the lyrics the cordinate with them finish. Just listen to the
          song to figure it out.. jeez!)

   
e|---|                e|---|
B|---|                B|---|
G|---|"I'm Sorry.."   G|---|"Please forgive me.."
D|-7-|                D|-6-|
A|-7-|                A|-6-|
E|-5-|                E|-4-|

e|---|
B|---|
G|---|
D|-6-|"Belieeeeeeeve me if you want.."
A|---|
E|-4-|

At the end of that part of the chorus play this

e|-----------|
B|-----------|
G|-----------|
D|-444444----|
A|--------0~-|
E|-222222-0~-|


Play Main Riff again


Play Verse again


Play Chorus again and repeat once


Interlude (clean)
e|----------------------|-------------|
B|-0-3-2--0-3-2--0-3-2--|--0-2-3-2-0--|
G|----------------------|-------------|
D|----------------------|-------------|repeat as needed
A|----------------------|-------------|
E|----------------------|-------------|
   Listen to song to get rythem


Play Chorus again and repeat once


(drum outro)
Comments