Box Car Racer - Sorrow Chords & Tabs

 

Sorrow Chords & Tabs

Box Car Racer Chords & Tabs

Version: 4 Type: Tab 0 ratings
1 star 2 stars 3 stars 4 stars 5 stars
comments

Sorrow Tab

Artist-Boxcar Racer
Song-Sorrow
Album-Boxcar Racer
Tabbed by-Tom Dillon

Intro
e---------------------------------------------------------------------------
b---------------------------------------------------------------------------
G---------------------------------------------------------------------------
D---------------------------------------------------------------------------
A--5-4---7-4-5-4----5-4----5-4--5-4-----5-4--5-4-----5-4---5-4---5-4--------
E------5----------------5-5---------5-5----------5-5-----5-----5------------
[ Tab from: http://www.guitartabs.cc/tabs/b/box_car_racer/sorrow_tab_ver_4.html ]
Verse
e---------------------------------------------------------------------------
b---------------------------------------------------------------------------
G---------------------------------------------------------------------------
D-77777777-66666666-44444444-66666666---------------------------------------
A-xxxxxxxx-xxxxxxxx-xxxxxxxx-xxxxxxxx---------------------------------------
E-55555555-44444444-22222222-44444444---------------------------------------
  
Chorus End chorus on:
e---------------------------------------------------------------------------
b---------------------------------------------------------------------------
G---------------------------------------------------------------------------
D-77777777-66666666-44444444-66666666----------7----------------------------
A-77777777-66666666-44444444-66666666----------x----------------------------
E-55555555-44444444-22222222-44444444----------5----------------------------

Interlude
e---------------------------------------------------------------------------
b-3-2----3-2--3-2----3-2--3-2---3-2--3-2---2-3-2----------------------------
G----2-2---------2-2---------2-2---------2----------------------------------
D---------------------------------------------------------------------------
A---------------------------------------------------------------------------
E---------------------------------------------------------------------------
Comments