Box Car Racer - Sorrow Chords & Tabs

 

Sorrow Chords & Tabs

Box Car Racer Chords & Tabs

Version: 3 Type: Tab 0 ratings
1 star 2 stars 3 stars 4 stars 5 stars
comments

Sorrow Tab

   
Box Car Racer
Sorrow
Tabbed by Vince a.k.a.
    ____                 __  __  __  __  _  ____      _  _
   / __ \ __  __ __     / / / / / / / / (_)/ _  \ /| / \/ \
  / ____// / / // /___ / /_/_/ / /_/_/ / // / / /  | \_/  /
 / /    / /_/ // / / // /\ \  / /\ \  / // /_/ /   | / \ /
/_/    /_____//_/ /_//_/  \_\/_/  \_\/_//_____/   _|_\_//_

~	=	let ring

Ok this is yet another good song by Box Car Racer and for
some reason no one has made a very accurate tab for this song
UNTIL NOW!!!!

Intro w/dirty sound
E---------------|
B---------------|
G---------------| X2
D-0-----2---0---|
A---4-0---0---4-|
E---------------|

Intro 2 w/hold delay
E-------------------------------|
B-------------------------------|
G-------------------------------| X2
D-0-----2---0-----0-----2---0---|
A---4-0---0---4-----4-0---0---4-|
E-------------------------------|

Verse
E---------------------------------|
B---------------------------------|
G---------------------------------|
D-7-7-7-7-7-7-7-7-6-6-6-6-6-6-6-6-|
A-x-x-x-x-x-x-x-x-x-x-x-x-x-x-x-x-|
E-5-5-5-5-5-5-5-5-4-4-4-4-4-4-4-4-|

E---------------------------------|
B---------------------------------|
G---------------------------------|
D-4-4-4-4-4-4-4-4-6-6-6-6-6-6-6-6-|
A-x-x-x-x-x-x-x-x-x-x-x-x-x-x-x-x-|
E-2-2-2-2-2-2-2-2-4-4-4-4-4-4-4-4-|

Then you play the intro2 again 

Then the verse again

Then you play the chorus:


[ Tab from: http://www.guitartabs.cc/tabs/b/box_car_racer/sorrow_tab_ver_3.html ]
Chorus:
Guitar1
E---------------------------------|
B---------------------------------|
G---------------------------------|
D-7-7-7-7-7-7-7-7-6-6-6-6-6-6-6-6-|
A-X-X-X-X-X-X-X-X-X-X-X-X-X-X-X-X-|
E-5-5-5-5-5-5-5-5-4-4-4-4-4-4-4-4-|
Guitar2
E---------------------------------|
B---------------------------------|
G-6-6-6-6-6-6-6-6-6-6-6-6-6-6-6-6-|
D-X-X-X-X-X-X-X-X-X-X-X-X-X-X-X-X-|
A-4-4-4-4-4-4-4-4-4-4-4-4-4-4-4-4-|
E---------------------------------|
Guitar1
E---------------------------------|
B---------------------------------|
G---------------------------------|
D-4-4-4-4-4-4-4-4-6-6-6-6-6-6-6-6-|
A-X-X-X-X-X-X-X-X-X-X-X-X-X-X-X-X-|
E-2-2-2-2-2-2-2-2-4-4-4-4-4-4-4-4-|
Guitar2
E---------------------------------|
B---------------------------------|
G-6-6-6-6-6-6---------------------|
D-X-X-X-X-X-X-4-4/6-6-6-6-6-6-6-6-|
A-4-4-4-4-4-4-X-X-X-X-X-X-X-X-X-X-|
E-------------2-2/4-4-4-4-4-4-4-4-|

Then you play intro2 again 

Then another verse

Then the chorus

Then you play this:

Interlude
Guitar2
E-----------------|
B-----------------|
G-6---6---6-7-6---|
D---7---7-------7-|
A-----------------|
E-----------------|

Then play the chorus once more

Then end with the drum fadeout on this chord
E----------------------|
B----------------------|
G----------------------|
D-7~~~~~~~~------------|
A-X--------------------|
E-5~~~~~~~~------------|
Comments